ISO-10303-21;
HEADER;
/* Generated by software containing ST-Developer
 * from STEP Tools, Inc. (www.steptools.com) 
 */

FILE_DESCRIPTION(
/* description */ (''),
/* implementation_level */ '2;1');

FILE_NAME(
/* name */ 
'P:\\Projekte\\PP1292 Unex Dakota LED Profile\\22-Zeichnungen St\X\FCc
klisten\\Anwender_3D-Daten\\3D_Tube_35.stp',
/* time_stamp */ '2021-03-22T16:16:06+01:00',
/* author */ ('sstotter'),
/* organization */ (''),
/* preprocessor_version */ 'ST-DEVELOPER v18.1',
/* originating_system */ 'Autodesk Inventor 2021',
/* authorisation */ '');

FILE_SCHEMA (('AUTOMOTIVE_DESIGN { 1 0 10303 214 3 1 1 }'));
ENDSEC;

DATA;
#10=MECHANICAL_DESIGN_GEOMETRIC_PRESENTATION_REPRESENTATION('',(#13,#14),
#610);
#11=SHAPE_REPRESENTATION_RELATIONSHIP('SRR','None',#617,#12);
#12=ADVANCED_BREP_SHAPE_REPRESENTATION('',(#15,#16),#609);
#13=STYLED_ITEM('',(#626),#15);
#14=STYLED_ITEM('',(#626),#16);
#15=MANIFOLD_SOLID_BREP('Volumenk\X\F6rper1',#357);
#16=MANIFOLD_SOLID_BREP('Volumenk\X\F6rper1',#358);
#17=CIRCLE('',#374,17.5);
#18=CIRCLE('',#375,17.5);
#19=CIRCLE('',#378,5.);
#20=CIRCLE('',#379,5.);
#21=CIRCLE('',#384,4.99999999999999);
#22=CIRCLE('',#385,4.99999999999999);
#23=CIRCLE('',#388,17.5);
#24=CIRCLE('',#389,17.5);
#25=CIRCLE('',#396,17.5);
#26=CIRCLE('',#397,17.5);
#27=CIRCLE('',#400,16.5);
#28=CIRCLE('',#401,16.5);
#29=CYLINDRICAL_SURFACE('',#373,17.5);
#30=CYLINDRICAL_SURFACE('',#377,5.);
#31=CYLINDRICAL_SURFACE('',#383,4.99999999999999);
#32=CYLINDRICAL_SURFACE('',#387,17.5);
#33=CYLINDRICAL_SURFACE('',#395,17.5);
#34=CYLINDRICAL_SURFACE('',#399,16.5);
#35=FACE_OUTER_BOUND('',#55,.T.);
#36=FACE_OUTER_BOUND('',#56,.T.);
#37=FACE_OUTER_BOUND('',#57,.T.);
#38=FACE_OUTER_BOUND('',#58,.T.);
#39=FACE_OUTER_BOUND('',#59,.T.);
#40=FACE_OUTER_BOUND('',#60,.T.);
#41=FACE_OUTER_BOUND('',#61,.T.);
#42=FACE_OUTER_BOUND('',#62,.T.);
#43=FACE_OUTER_BOUND('',#63,.T.);
#44=FACE_OUTER_BOUND('',#64,.T.);
#45=FACE_OUTER_BOUND('',#65,.T.);
#46=FACE_OUTER_BOUND('',#66,.T.);
#47=FACE_OUTER_BOUND('',#67,.T.);
#48=FACE_OUTER_BOUND('',#68,.T.);
#49=FACE_OUTER_BOUND('',#69,.T.);
#50=FACE_OUTER_BOUND('',#70,.T.);
#51=FACE_OUTER_BOUND('',#71,.T.);
#52=FACE_OUTER_BOUND('',#72,.T.);
#53=FACE_OUTER_BOUND('',#73,.T.);
#54=FACE_OUTER_BOUND('',#74,.T.);
#55=EDGE_LOOP('',(#227,#228,#229,#230));
#56=EDGE_LOOP('',(#231,#232,#233,#234));
#57=EDGE_LOOP('',(#235,#236,#237,#238));
#58=EDGE_LOOP('',(#239,#240,#241,#242));
#59=EDGE_LOOP('',(#243,#244,#245,#246));
#60=EDGE_LOOP('',(#247,#248,#249,#250));
#61=EDGE_LOOP('',(#251,#252,#253,#254));
#62=EDGE_LOOP('',(#255,#256,#257,#258));
#63=EDGE_LOOP('',(#259,#260,#261,#262));
#64=EDGE_LOOP('',(#263,#264,#265,#266));
#65=EDGE_LOOP('',(#267,#268,#269,#270));
#66=EDGE_LOOP('',(#271,#272,#273,#274));
#67=EDGE_LOOP('',(#275,#276,#277,#278,#279,#280,#281,#282,#283,#284,#285,
#286));
#68=EDGE_LOOP('',(#287,#288,#289,#290,#291,#292,#293,#294,#295,#296,#297,
#298));
#69=EDGE_LOOP('',(#299,#300,#301,#302));
#70=EDGE_LOOP('',(#303,#304,#305,#306));
#71=EDGE_LOOP('',(#307,#308,#309,#310));
#72=EDGE_LOOP('',(#311,#312,#313,#314));
#73=EDGE_LOOP('',(#315,#316,#317,#318));
#74=EDGE_LOOP('',(#319,#320,#321,#322));
#75=LINE('',#510,#111);
#76=LINE('',#512,#112);
#77=LINE('',#514,#113);
#78=LINE('',#515,#114);
#79=LINE('',#521,#115);
#80=LINE('',#524,#116);
#81=LINE('',#526,#117);
#82=LINE('',#527,#118);
#83=LINE('',#533,#119);
#84=LINE('',#536,#120);
#85=LINE('',#538,#121);
#86=LINE('',#539,#122);
#87=LINE('',#542,#123);
#88=LINE('',#544,#124);
#89=LINE('',#545,#125);
#90=LINE('',#548,#126);
#91=LINE('',#550,#127);
#92=LINE('',#551,#128);
#93=LINE('',#557,#129);
#94=LINE('',#560,#130);
#95=LINE('',#562,#131);
#96=LINE('',#563,#132);
#97=LINE('',#569,#133);
#98=LINE('',#572,#134);
#99=LINE('',#574,#135);
#100=LINE('',#575,#136);
#101=LINE('',#577,#137);
#102=LINE('',#578,#138);
#103=LINE('',#584,#139);
#104=LINE('',#586,#140);
#105=LINE('',#588,#141);
#106=LINE('',#589,#142);
#107=LINE('',#595,#143);
#108=LINE('',#598,#144);
#109=LINE('',#600,#145);
#110=LINE('',#601,#146);
#111=VECTOR('',#408,10.);
#112=VECTOR('',#409,10.);
#113=VECTOR('',#410,10.);
#114=VECTOR('',#411,10.);
#115=VECTOR('',#418,10.);
#116=VECTOR('',#421,10.);
#117=VECTOR('',#422,10.);
#118=VECTOR('',#423,10.);
#119=VECTOR('',#430,10.);
#120=VECTOR('',#433,10.);
#121=VECTOR('',#434,10.);
#122=VECTOR('',#435,10.);
#123=VECTOR('',#438,10.);
#124=VECTOR('',#439,10.);
#125=VECTOR('',#440,10.);
#126=VECTOR('',#443,10.);
#127=VECTOR('',#444,10.);
#128=VECTOR('',#445,10.);
#129=VECTOR('',#452,10.);
#130=VECTOR('',#455,10.);
#131=VECTOR('',#456,10.);
#132=VECTOR('',#457,10.);
#133=VECTOR('',#464,10.);
#134=VECTOR('',#467,10.);
#135=VECTOR('',#468,10.);
#136=VECTOR('',#469,10.);
#137=VECTOR('',#472,10.);
#138=VECTOR('',#473,10.);
#139=VECTOR('',#480,10.);
#140=VECTOR('',#481,10.);
#141=VECTOR('',#482,10.);
#142=VECTOR('',#483,10.);
#143=VECTOR('',#490,10.);
#144=VECTOR('',#493,10.);
#145=VECTOR('',#494,10.);
#146=VECTOR('',#495,10.);
#147=VERTEX_POINT('',#508);
#148=VERTEX_POINT('',#509);
#149=VERTEX_POINT('',#511);
#150=VERTEX_POINT('',#513);
#151=VERTEX_POINT('',#517);
#152=VERTEX_POINT('',#519);
#153=VERTEX_POINT('',#523);
#154=VERTEX_POINT('',#525);
#155=VERTEX_POINT('',#529);
#156=VERTEX_POINT('',#531);
#157=VERTEX_POINT('',#535);
#158=VERTEX_POINT('',#537);
#159=VERTEX_POINT('',#541);
#160=VERTEX_POINT('',#543);
#161=VERTEX_POINT('',#547);
#162=VERTEX_POINT('',#549);
#163=VERTEX_POINT('',#553);
#164=VERTEX_POINT('',#555);
#165=VERTEX_POINT('',#559);
#166=VERTEX_POINT('',#561);
#167=VERTEX_POINT('',#565);
#168=VERTEX_POINT('',#567);
#169=VERTEX_POINT('',#571);
#170=VERTEX_POINT('',#573);
#171=VERTEX_POINT('',#582);
#172=VERTEX_POINT('',#583);
#173=VERTEX_POINT('',#585);
#174=VERTEX_POINT('',#587);
#175=VERTEX_POINT('',#591);
#176=VERTEX_POINT('',#593);
#177=VERTEX_POINT('',#597);
#178=VERTEX_POINT('',#599);
#179=EDGE_CURVE('',#147,#148,#75,.T.);
#180=EDGE_CURVE('',#148,#149,#76,.T.);
#181=EDGE_CURVE('',#150,#149,#77,.T.);
#182=EDGE_CURVE('',#147,#150,#78,.T.);
#183=EDGE_CURVE('',#151,#147,#17,.T.);
#184=EDGE_CURVE('',#152,#150,#18,.T.);
#185=EDGE_CURVE('',#151,#152,#79,.T.);
#186=EDGE_CURVE('',#153,#151,#80,.T.);
#187=EDGE_CURVE('',#154,#152,#81,.T.);
#188=EDGE_CURVE('',#153,#154,#82,.T.);
#189=EDGE_CURVE('',#155,#153,#19,.T.);
#190=EDGE_CURVE('',#156,#154,#20,.T.);
#191=EDGE_CURVE('',#155,#156,#83,.T.);
#192=EDGE_CURVE('',#157,#155,#84,.T.);
#193=EDGE_CURVE('',#158,#156,#85,.T.);
#194=EDGE_CURVE('',#157,#158,#86,.T.);
#195=EDGE_CURVE('',#159,#157,#87,.T.);
#196=EDGE_CURVE('',#160,#158,#88,.T.);
#197=EDGE_CURVE('',#159,#160,#89,.T.);
#198=EDGE_CURVE('',#161,#159,#90,.T.);
#199=EDGE_CURVE('',#162,#160,#91,.T.);
#200=EDGE_CURVE('',#161,#162,#92,.T.);
#201=EDGE_CURVE('',#163,#161,#21,.T.);
#202=EDGE_CURVE('',#164,#162,#22,.T.);
#203=EDGE_CURVE('',#163,#164,#93,.T.);
#204=EDGE_CURVE('',#165,#163,#94,.T.);
#205=EDGE_CURVE('',#166,#164,#95,.T.);
#206=EDGE_CURVE('',#165,#166,#96,.T.);
#207=EDGE_CURVE('',#167,#165,#23,.T.);
#208=EDGE_CURVE('',#168,#166,#24,.T.);
#209=EDGE_CURVE('',#167,#168,#97,.T.);
#210=EDGE_CURVE('',#169,#167,#98,.T.);
#211=EDGE_CURVE('',#170,#168,#99,.T.);
#212=EDGE_CURVE('',#169,#170,#100,.T.);
#213=EDGE_CURVE('',#148,#169,#101,.T.);
#214=EDGE_CURVE('',#149,#170,#102,.T.);
#215=EDGE_CURVE('',#171,#172,#103,.T.);
#216=EDGE_CURVE('',#172,#173,#104,.T.);
#217=EDGE_CURVE('',#174,#173,#105,.T.);
#218=EDGE_CURVE('',#171,#174,#106,.T.);
#219=EDGE_CURVE('',#175,#171,#25,.T.);
#220=EDGE_CURVE('',#176,#174,#26,.T.);
#221=EDGE_CURVE('',#175,#176,#107,.T.);
#222=EDGE_CURVE('',#177,#175,#108,.T.);
#223=EDGE_CURVE('',#178,#176,#109,.T.);
#224=EDGE_CURVE('',#177,#178,#110,.T.);
#225=EDGE_CURVE('',#172,#177,#27,.T.);
#226=EDGE_CURVE('',#173,#178,#28,.T.);
#227=ORIENTED_EDGE('',*,*,#179,.T.);
#228=ORIENTED_EDGE('',*,*,#180,.T.);
#229=ORIENTED_EDGE('',*,*,#181,.F.);
#230=ORIENTED_EDGE('',*,*,#182,.F.);
#231=ORIENTED_EDGE('',*,*,#183,.T.);
#232=ORIENTED_EDGE('',*,*,#182,.T.);
#233=ORIENTED_EDGE('',*,*,#184,.F.);
#234=ORIENTED_EDGE('',*,*,#185,.F.);
#235=ORIENTED_EDGE('',*,*,#186,.T.);
#236=ORIENTED_EDGE('',*,*,#185,.T.);
#237=ORIENTED_EDGE('',*,*,#187,.F.);
#238=ORIENTED_EDGE('',*,*,#188,.F.);
#239=ORIENTED_EDGE('',*,*,#189,.T.);
#240=ORIENTED_EDGE('',*,*,#188,.T.);
#241=ORIENTED_EDGE('',*,*,#190,.F.);
#242=ORIENTED_EDGE('',*,*,#191,.F.);
#243=ORIENTED_EDGE('',*,*,#192,.T.);
#244=ORIENTED_EDGE('',*,*,#191,.T.);
#245=ORIENTED_EDGE('',*,*,#193,.F.);
#246=ORIENTED_EDGE('',*,*,#194,.F.);
#247=ORIENTED_EDGE('',*,*,#195,.T.);
#248=ORIENTED_EDGE('',*,*,#194,.T.);
#249=ORIENTED_EDGE('',*,*,#196,.F.);
#250=ORIENTED_EDGE('',*,*,#197,.F.);
#251=ORIENTED_EDGE('',*,*,#198,.T.);
#252=ORIENTED_EDGE('',*,*,#197,.T.);
#253=ORIENTED_EDGE('',*,*,#199,.F.);
#254=ORIENTED_EDGE('',*,*,#200,.F.);
#255=ORIENTED_EDGE('',*,*,#201,.T.);
#256=ORIENTED_EDGE('',*,*,#200,.T.);
#257=ORIENTED_EDGE('',*,*,#202,.F.);
#258=ORIENTED_EDGE('',*,*,#203,.F.);
#259=ORIENTED_EDGE('',*,*,#204,.T.);
#260=ORIENTED_EDGE('',*,*,#203,.T.);
#261=ORIENTED_EDGE('',*,*,#205,.F.);
#262=ORIENTED_EDGE('',*,*,#206,.F.);
#263=ORIENTED_EDGE('',*,*,#207,.T.);
#264=ORIENTED_EDGE('',*,*,#206,.T.);
#265=ORIENTED_EDGE('',*,*,#208,.F.);
#266=ORIENTED_EDGE('',*,*,#209,.F.);
#267=ORIENTED_EDGE('',*,*,#210,.T.);
#268=ORIENTED_EDGE('',*,*,#209,.T.);
#269=ORIENTED_EDGE('',*,*,#211,.F.);
#270=ORIENTED_EDGE('',*,*,#212,.F.);
#271=ORIENTED_EDGE('',*,*,#213,.T.);
#272=ORIENTED_EDGE('',*,*,#212,.T.);
#273=ORIENTED_EDGE('',*,*,#214,.F.);
#274=ORIENTED_EDGE('',*,*,#180,.F.);
#275=ORIENTED_EDGE('',*,*,#214,.T.);
#276=ORIENTED_EDGE('',*,*,#211,.T.);
#277=ORIENTED_EDGE('',*,*,#208,.T.);
#278=ORIENTED_EDGE('',*,*,#205,.T.);
#279=ORIENTED_EDGE('',*,*,#202,.T.);
#280=ORIENTED_EDGE('',*,*,#199,.T.);
#281=ORIENTED_EDGE('',*,*,#196,.T.);
#282=ORIENTED_EDGE('',*,*,#193,.T.);
#283=ORIENTED_EDGE('',*,*,#190,.T.);
#284=ORIENTED_EDGE('',*,*,#187,.T.);
#285=ORIENTED_EDGE('',*,*,#184,.T.);
#286=ORIENTED_EDGE('',*,*,#181,.T.);
#287=ORIENTED_EDGE('',*,*,#213,.F.);
#288=ORIENTED_EDGE('',*,*,#179,.F.);
#289=ORIENTED_EDGE('',*,*,#183,.F.);
#290=ORIENTED_EDGE('',*,*,#186,.F.);
#291=ORIENTED_EDGE('',*,*,#189,.F.);
#292=ORIENTED_EDGE('',*,*,#192,.F.);
#293=ORIENTED_EDGE('',*,*,#195,.F.);
#294=ORIENTED_EDGE('',*,*,#198,.F.);
#295=ORIENTED_EDGE('',*,*,#201,.F.);
#296=ORIENTED_EDGE('',*,*,#204,.F.);
#297=ORIENTED_EDGE('',*,*,#207,.F.);
#298=ORIENTED_EDGE('',*,*,#210,.F.);
#299=ORIENTED_EDGE('',*,*,#215,.T.);
#300=ORIENTED_EDGE('',*,*,#216,.T.);
#301=ORIENTED_EDGE('',*,*,#217,.F.);
#302=ORIENTED_EDGE('',*,*,#218,.F.);
#303=ORIENTED_EDGE('',*,*,#219,.T.);
#304=ORIENTED_EDGE('',*,*,#218,.T.);
#305=ORIENTED_EDGE('',*,*,#220,.F.);
#306=ORIENTED_EDGE('',*,*,#221,.F.);
#307=ORIENTED_EDGE('',*,*,#222,.T.);
#308=ORIENTED_EDGE('',*,*,#221,.T.);
#309=ORIENTED_EDGE('',*,*,#223,.F.);
#310=ORIENTED_EDGE('',*,*,#224,.F.);
#311=ORIENTED_EDGE('',*,*,#225,.T.);
#312=ORIENTED_EDGE('',*,*,#224,.T.);
#313=ORIENTED_EDGE('',*,*,#226,.F.);
#314=ORIENTED_EDGE('',*,*,#216,.F.);
#315=ORIENTED_EDGE('',*,*,#226,.T.);
#316=ORIENTED_EDGE('',*,*,#223,.T.);
#317=ORIENTED_EDGE('',*,*,#220,.T.);
#318=ORIENTED_EDGE('',*,*,#217,.T.);
#319=ORIENTED_EDGE('',*,*,#225,.F.);
#320=ORIENTED_EDGE('',*,*,#215,.F.);
#321=ORIENTED_EDGE('',*,*,#219,.F.);
#322=ORIENTED_EDGE('',*,*,#222,.F.);
#323=PLANE('',#372);
#324=PLANE('',#376);
#325=PLANE('',#380);
#326=PLANE('',#381);
#327=PLANE('',#382);
#328=PLANE('',#386);
#329=PLANE('',#390);
#330=PLANE('',#391);
#331=PLANE('',#392);
#332=PLANE('',#393);
#333=PLANE('',#394);
#334=PLANE('',#398);
#335=PLANE('',#402);
#336=PLANE('',#403);
#337=ADVANCED_FACE('',(#35),#323,.T.);
#338=ADVANCED_FACE('',(#36),#29,.T.);
#339=ADVANCED_FACE('',(#37),#324,.T.);
#340=ADVANCED_FACE('',(#38),#30,.T.);
#341=ADVANCED_FACE('',(#39),#325,.T.);
#342=ADVANCED_FACE('',(#40),#326,.T.);
#343=ADVANCED_FACE('',(#41),#327,.T.);
#344=ADVANCED_FACE('',(#42),#31,.T.);
#345=ADVANCED_FACE('',(#43),#328,.T.);
#346=ADVANCED_FACE('',(#44),#32,.T.);
#347=ADVANCED_FACE('',(#45),#329,.T.);
#348=ADVANCED_FACE('',(#46),#330,.T.);
#349=ADVANCED_FACE('',(#47),#331,.T.);
#350=ADVANCED_FACE('',(#48),#332,.F.);
#351=ADVANCED_FACE('',(#49),#333,.T.);
#352=ADVANCED_FACE('',(#50),#33,.T.);
#353=ADVANCED_FACE('',(#51),#334,.T.);
#354=ADVANCED_FACE('',(#52),#34,.F.);
#355=ADVANCED_FACE('',(#53),#335,.T.);
#356=ADVANCED_FACE('',(#54),#336,.F.);
#357=CLOSED_SHELL('',(#337,#338,#339,#340,#341,#342,#343,#344,#345,#346,
#347,#348,#349,#350));
#358=CLOSED_SHELL('',(#351,#352,#353,#354,#355,#356));
#359=DERIVED_UNIT_ELEMENT(#361,1.);
#360=DERIVED_UNIT_ELEMENT(#612,3.);
#361=(
MASS_UNIT()
NAMED_UNIT(*)
SI_UNIT($,.GRAM.)
);
#362=DERIVED_UNIT((#359,#360));
#363=MEASURE_REPRESENTATION_ITEM('density measure',
POSITIVE_RATIO_MEASURE(1.),#362);
#364=PROPERTY_DEFINITION_REPRESENTATION(#369,#366);
#365=PROPERTY_DEFINITION_REPRESENTATION(#370,#367);
#366=REPRESENTATION('material name',(#368),#609);
#367=REPRESENTATION('density',(#363),#609);
#368=DESCRIPTIVE_REPRESENTATION_ITEM('Generisch','Generisch');
#369=PROPERTY_DEFINITION('material property','material name',#619);
#370=PROPERTY_DEFINITION('material property','density of part',#619);
#371=AXIS2_PLACEMENT_3D('placement',#506,#404,#405);
#372=AXIS2_PLACEMENT_3D('',#507,#406,#407);
#373=AXIS2_PLACEMENT_3D('',#516,#412,#413);
#374=AXIS2_PLACEMENT_3D('',#518,#414,#415);
#375=AXIS2_PLACEMENT_3D('',#520,#416,#417);
#376=AXIS2_PLACEMENT_3D('',#522,#419,#420);
#377=AXIS2_PLACEMENT_3D('',#528,#424,#425);
#378=AXIS2_PLACEMENT_3D('',#530,#426,#427);
#379=AXIS2_PLACEMENT_3D('',#532,#428,#429);
#380=AXIS2_PLACEMENT_3D('',#534,#431,#432);
#381=AXIS2_PLACEMENT_3D('',#540,#436,#437);
#382=AXIS2_PLACEMENT_3D('',#546,#441,#442);
#383=AXIS2_PLACEMENT_3D('',#552,#446,#447);
#384=AXIS2_PLACEMENT_3D('',#554,#448,#449);
#385=AXIS2_PLACEMENT_3D('',#556,#450,#451);
#386=AXIS2_PLACEMENT_3D('',#558,#453,#454);
#387=AXIS2_PLACEMENT_3D('',#564,#458,#459);
#388=AXIS2_PLACEMENT_3D('',#566,#460,#461);
#389=AXIS2_PLACEMENT_3D('',#568,#462,#463);
#390=AXIS2_PLACEMENT_3D('',#570,#465,#466);
#391=AXIS2_PLACEMENT_3D('',#576,#470,#471);
#392=AXIS2_PLACEMENT_3D('',#579,#474,#475);
#393=AXIS2_PLACEMENT_3D('',#580,#476,#477);
#394=AXIS2_PLACEMENT_3D('',#581,#478,#479);
#395=AXIS2_PLACEMENT_3D('',#590,#484,#485);
#396=AXIS2_PLACEMENT_3D('',#592,#486,#487);
#397=AXIS2_PLACEMENT_3D('',#594,#488,#489);
#398=AXIS2_PLACEMENT_3D('',#596,#491,#492);
#399=AXIS2_PLACEMENT_3D('',#602,#496,#497);
#400=AXIS2_PLACEMENT_3D('',#603,#498,#499);
#401=AXIS2_PLACEMENT_3D('',#604,#500,#501);
#402=AXIS2_PLACEMENT_3D('',#605,#502,#503);
#403=AXIS2_PLACEMENT_3D('',#606,#504,#505);
#404=DIRECTION('axis',(0.,0.,1.));
#405=DIRECTION('refdir',(1.,0.,0.));
#406=DIRECTION('center_axis',(-1.,-6.01928145881109E-16,0.));
#407=DIRECTION('ref_axis',(6.01928145881109E-16,-1.,0.));
#408=DIRECTION('',(6.01928145881109E-16,-1.,0.));
#409=DIRECTION('',(0.,0.,1.));
#410=DIRECTION('',(6.01928145881109E-16,-1.,0.));
#411=DIRECTION('',(0.,0.,1.));
#412=DIRECTION('center_axis',(0.,0.,1.));
#413=DIRECTION('ref_axis',(-0.285714285714286,0.95831484749991,0.));
#414=DIRECTION('center_axis',(0.,0.,1.));
#415=DIRECTION('ref_axis',(-0.285714285714286,0.95831484749991,0.));
#416=DIRECTION('center_axis',(0.,0.,1.));
#417=DIRECTION('ref_axis',(-0.285714285714286,0.95831484749991,0.));
#418=DIRECTION('',(0.,0.,1.));
#419=DIRECTION('center_axis',(1.,0.,0.));
#420=DIRECTION('ref_axis',(0.,1.,0.));
#421=DIRECTION('',(0.,1.,0.));
#422=DIRECTION('',(0.,1.,0.));
#423=DIRECTION('',(0.,0.,1.));
#424=DIRECTION('center_axis',(0.,0.,1.));
#425=DIRECTION('ref_axis',(0.42999659307422,-0.902830510087338,0.));
#426=DIRECTION('center_axis',(0.,0.,1.));
#427=DIRECTION('ref_axis',(0.42999659307422,-0.902830510087338,0.));
#428=DIRECTION('center_axis',(0.,0.,1.));
#429=DIRECTION('ref_axis',(0.42999659307422,-0.902830510087338,0.));
#430=DIRECTION('',(0.,0.,1.));
#431=DIRECTION('center_axis',(0.42999659307422,-0.902830510087338,0.));
#432=DIRECTION('ref_axis',(0.902830510087338,0.42999659307422,0.));
#433=DIRECTION('',(0.902830510087338,0.42999659307422,0.));
#434=DIRECTION('',(0.902830510087338,0.42999659307422,0.));
#435=DIRECTION('',(0.,0.,1.));
#436=DIRECTION('center_axis',(0.,-1.,0.));
#437=DIRECTION('ref_axis',(1.,0.,0.));
#438=DIRECTION('',(1.,0.,0.));
#439=DIRECTION('',(1.,0.,0.));
#440=DIRECTION('',(0.,0.,1.));
#441=DIRECTION('center_axis',(-0.429996593074224,-0.902830510087337,0.));
#442=DIRECTION('ref_axis',(0.902830510087337,-0.429996593074224,0.));
#443=DIRECTION('',(0.902830510087337,-0.429996593074224,0.));
#444=DIRECTION('',(0.902830510087337,-0.429996593074224,0.));
#445=DIRECTION('',(0.,0.,1.));
#446=DIRECTION('center_axis',(0.,0.,1.));
#447=DIRECTION('ref_axis',(-1.,0.,0.));
#448=DIRECTION('center_axis',(0.,0.,1.));
#449=DIRECTION('ref_axis',(-1.,0.,0.));
#450=DIRECTION('center_axis',(0.,0.,1.));
#451=DIRECTION('ref_axis',(-1.,0.,0.));
#452=DIRECTION('',(0.,0.,1.));
#453=DIRECTION('center_axis',(-1.,0.,0.));
#454=DIRECTION('ref_axis',(0.,-1.,0.));
#455=DIRECTION('',(0.,-1.,0.));
#456=DIRECTION('',(0.,-1.,0.));
#457=DIRECTION('',(0.,0.,1.));
#458=DIRECTION('center_axis',(0.,0.,1.));
#459=DIRECTION('ref_axis',(-0.285714285714286,0.95831484749991,0.));
#460=DIRECTION('center_axis',(0.,0.,1.));
#461=DIRECTION('ref_axis',(-0.285714285714286,0.95831484749991,0.));
#462=DIRECTION('center_axis',(0.,0.,1.));
#463=DIRECTION('ref_axis',(-0.285714285714286,0.95831484749991,0.));
#464=DIRECTION('',(0.,0.,1.));
#465=DIRECTION('center_axis',(1.,0.,0.));
#466=DIRECTION('ref_axis',(0.,1.,0.));
#467=DIRECTION('',(0.,1.,0.));
#468=DIRECTION('',(0.,1.,0.));
#469=DIRECTION('',(0.,0.,1.));
#470=DIRECTION('center_axis',(-4.44089209850062E-16,1.,0.));
#471=DIRECTION('ref_axis',(-1.,-4.44089209850062E-16,0.));
#472=DIRECTION('',(-1.,-4.44089209850062E-16,0.));
#473=DIRECTION('',(-1.,-4.44089209850062E-16,0.));
#474=DIRECTION('center_axis',(0.,0.,1.));
#475=DIRECTION('ref_axis',(1.,0.,0.));
#476=DIRECTION('center_axis',(0.,0.,1.));
#477=DIRECTION('ref_axis',(1.,0.,0.));
#478=DIRECTION('center_axis',(-1.,0.,0.));
#479=DIRECTION('ref_axis',(0.,-1.,0.));
#480=DIRECTION('',(0.,-1.,0.));
#481=DIRECTION('',(0.,0.,1.));
#482=DIRECTION('',(0.,-1.,0.));
#483=DIRECTION('',(0.,0.,1.));
#484=DIRECTION('center_axis',(0.,0.,1.));
#485=DIRECTION('ref_axis',(1.26882631385732E-16,-1.,0.));
#486=DIRECTION('center_axis',(0.,0.,1.));
#487=DIRECTION('ref_axis',(-0.285714285714286,0.95831484749991,0.));
#488=DIRECTION('center_axis',(0.,0.,1.));
#489=DIRECTION('ref_axis',(-0.285714285714286,0.95831484749991,0.));
#490=DIRECTION('',(0.,0.,1.));
#491=DIRECTION('center_axis',(1.,-1.78542548145977E-15,0.));
#492=DIRECTION('ref_axis',(1.78542548145977E-15,1.,0.));
#493=DIRECTION('',(1.78542548145977E-15,1.,0.));
#494=DIRECTION('',(1.78542548145977E-15,1.,0.));
#495=DIRECTION('',(0.,0.,1.));
#496=DIRECTION('center_axis',(0.,0.,1.));
#497=DIRECTION('ref_axis',(-6.12323399573677E-17,-1.,0.));
#498=DIRECTION('center_axis',(0.,0.,-1.));
#499=DIRECTION('ref_axis',(-1.,0.,0.));
#500=DIRECTION('center_axis',(0.,0.,-1.));
#501=DIRECTION('ref_axis',(-1.,0.,0.));
#502=DIRECTION('center_axis',(0.,0.,1.));
#503=DIRECTION('ref_axis',(1.,0.,0.));
#504=DIRECTION('center_axis',(0.,0.,1.));
#505=DIRECTION('ref_axis',(1.,0.,0.));
#506=CARTESIAN_POINT('',(0.,0.,0.));
#507=CARTESIAN_POINT('Origin',(5.,16.7705098312484,0.));
#508=CARTESIAN_POINT('',(5.,16.7705098312484,0.));
#509=CARTESIAN_POINT('',(5.,8.47050983124842,0.));
#510=CARTESIAN_POINT('',(5.,16.7705098312484,0.));
#511=CARTESIAN_POINT('',(5.,8.47050983124842,1000.));
#512=CARTESIAN_POINT('',(5.,8.47050983124842,0.));
#513=CARTESIAN_POINT('',(5.,16.7705098312484,1000.));
#514=CARTESIAN_POINT('',(5.,16.7705098312484,1000.));
#515=CARTESIAN_POINT('',(5.,16.7705098312484,0.));
#516=CARTESIAN_POINT('Origin',(0.,0.,0.));
#517=CARTESIAN_POINT('',(9.9,14.430523206038,0.));
#518=CARTESIAN_POINT('Origin',(0.,0.,0.));
#519=CARTESIAN_POINT('',(9.9,14.430523206038,1000.));
#520=CARTESIAN_POINT('Origin',(0.,0.,1000.));
#521=CARTESIAN_POINT('',(9.9,14.430523206038,0.));
#522=CARTESIAN_POINT('Origin',(9.9,11.2705098312484,0.));
#523=CARTESIAN_POINT('',(9.9,11.2705098312484,0.));
#524=CARTESIAN_POINT('',(9.9,5.97050983124842,0.));
#525=CARTESIAN_POINT('',(9.9,11.2705098312484,1000.));
#526=CARTESIAN_POINT('',(9.9,5.97050983124842,1000.));
#527=CARTESIAN_POINT('',(9.9,11.2705098312484,0.));
#528=CARTESIAN_POINT('Origin',(4.9,11.2705098312484,0.));
#529=CARTESIAN_POINT('',(7.0499829653711,6.75635728081173,0.));
#530=CARTESIAN_POINT('Origin',(4.9,11.2705098312484,0.));
#531=CARTESIAN_POINT('',(7.0499829653711,6.75635728081173,1000.));
#532=CARTESIAN_POINT('Origin',(4.9,11.2705098312484,1000.));
#533=CARTESIAN_POINT('',(7.0499829653711,6.75635728081173,0.));
#534=CARTESIAN_POINT('Origin',(5.39999999999999,5.97050983124842,0.));
#535=CARTESIAN_POINT('',(5.39999999999999,5.97050983124842,0.));
#536=CARTESIAN_POINT('',(5.39999999999999,5.97050983124842,0.));
#537=CARTESIAN_POINT('',(5.39999999999999,5.97050983124842,1000.));
#538=CARTESIAN_POINT('',(5.39999999999999,5.97050983124842,1000.));
#539=CARTESIAN_POINT('',(5.39999999999999,5.97050983124842,0.));
#540=CARTESIAN_POINT('Origin',(-5.40000000000001,5.97050983124842,0.));
#541=CARTESIAN_POINT('',(-5.40000000000001,5.97050983124842,0.));
#542=CARTESIAN_POINT('',(-9.9,5.97050983124842,0.));
#543=CARTESIAN_POINT('',(-5.40000000000001,5.97050983124842,1000.));
#544=CARTESIAN_POINT('',(-9.9,5.97050983124842,1000.));
#545=CARTESIAN_POINT('',(-5.40000000000001,5.97050983124842,0.));
#546=CARTESIAN_POINT('Origin',(-7.04998296537112,6.75635728081174,0.));
#547=CARTESIAN_POINT('',(-7.04998296537112,6.75635728081174,0.));
#548=CARTESIAN_POINT('',(-7.04998296537112,6.75635728081174,0.));
#549=CARTESIAN_POINT('',(-7.04998296537112,6.75635728081174,1000.));
#550=CARTESIAN_POINT('',(-7.04998296537112,6.75635728081174,1000.));
#551=CARTESIAN_POINT('',(-7.04998296537112,6.75635728081174,0.));
#552=CARTESIAN_POINT('Origin',(-4.9,11.2705098312484,0.));
#553=CARTESIAN_POINT('',(-9.9,11.2705098312484,0.));
#554=CARTESIAN_POINT('Origin',(-4.9,11.2705098312484,0.));
#555=CARTESIAN_POINT('',(-9.9,11.2705098312484,1000.));
#556=CARTESIAN_POINT('Origin',(-4.9,11.2705098312484,1000.));
#557=CARTESIAN_POINT('',(-9.9,11.2705098312484,0.));
#558=CARTESIAN_POINT('Origin',(-9.9,14.430523206038,0.));
#559=CARTESIAN_POINT('',(-9.9,14.430523206038,0.));
#560=CARTESIAN_POINT('',(-9.9,16.7705098312484,0.));
#561=CARTESIAN_POINT('',(-9.9,14.430523206038,1000.));
#562=CARTESIAN_POINT('',(-9.9,16.7705098312484,1000.));
#563=CARTESIAN_POINT('',(-9.9,14.430523206038,0.));
#564=CARTESIAN_POINT('Origin',(0.,0.,0.));
#565=CARTESIAN_POINT('',(-5.,16.7705098312484,0.));
#566=CARTESIAN_POINT('Origin',(0.,0.,0.));
#567=CARTESIAN_POINT('',(-5.,16.7705098312484,1000.));
#568=CARTESIAN_POINT('Origin',(0.,0.,1000.));
#569=CARTESIAN_POINT('',(-5.,16.7705098312484,0.));
#570=CARTESIAN_POINT('Origin',(-5.,8.47050983124842,0.));
#571=CARTESIAN_POINT('',(-5.,8.47050983124842,0.));
#572=CARTESIAN_POINT('',(-5.,8.47050983124842,0.));
#573=CARTESIAN_POINT('',(-5.,8.47050983124842,1000.));
#574=CARTESIAN_POINT('',(-5.,8.47050983124842,1000.));
#575=CARTESIAN_POINT('',(-5.,8.47050983124842,0.));
#576=CARTESIAN_POINT('Origin',(5.,8.47050983124842,0.));
#577=CARTESIAN_POINT('',(5.,8.47050983124842,0.));
#578=CARTESIAN_POINT('',(5.,8.47050983124842,1000.));
#579=CARTESIAN_POINT('Origin',(0.,11.3705098312484,1000.));
#580=CARTESIAN_POINT('Origin',(0.,11.3705098312484,0.));
#581=CARTESIAN_POINT('Origin',(10.1,14.2912560679599,0.));
#582=CARTESIAN_POINT('',(10.1,14.2912560679599,0.));
#583=CARTESIAN_POINT('',(10.1,13.0476051442401,0.));
#584=CARTESIAN_POINT('',(10.1,14.2912560679599,0.));
#585=CARTESIAN_POINT('',(10.1,13.0476051442401,1000.));
#586=CARTESIAN_POINT('',(10.1,13.0476051442401,0.));
#587=CARTESIAN_POINT('',(10.1,14.2912560679599,1000.));
#588=CARTESIAN_POINT('',(10.1,14.2912560679599,1000.));
#589=CARTESIAN_POINT('',(10.1,14.2912560679599,0.));
#590=CARTESIAN_POINT('Origin',(0.,0.,0.));
#591=CARTESIAN_POINT('',(-10.1,14.2912560679599,0.));
#592=CARTESIAN_POINT('Origin',(0.,0.,0.));
#593=CARTESIAN_POINT('',(-10.1,14.2912560679599,1000.));
#594=CARTESIAN_POINT('Origin',(0.,0.,1000.));
#595=CARTESIAN_POINT('',(-10.1,14.2912560679599,0.));
#596=CARTESIAN_POINT('Origin',(-10.1,13.0476051442401,0.));
#597=CARTESIAN_POINT('',(-10.1,13.0476051442401,0.));
#598=CARTESIAN_POINT('',(-10.1,13.0476051442401,0.));
#599=CARTESIAN_POINT('',(-10.1,13.0476051442401,1000.));
#600=CARTESIAN_POINT('',(-10.1,13.0476051442401,1000.));
#601=CARTESIAN_POINT('',(-10.1,13.0476051442401,0.));
#602=CARTESIAN_POINT('Origin',(0.,0.,0.));
#603=CARTESIAN_POINT('Origin',(0.,0.,0.));
#604=CARTESIAN_POINT('Origin',(0.,0.,1000.));
#605=CARTESIAN_POINT('Origin',(0.,-1.60437196602006,1000.));
#606=CARTESIAN_POINT('Origin',(0.,-1.60437196602006,0.));
#607=UNCERTAINTY_MEASURE_WITH_UNIT(LENGTH_MEASURE(0.01),#611,
'DISTANCE_ACCURACY_VALUE',
'Maximum model space distance between geometric entities at asserted c
onnectivities');
#608=UNCERTAINTY_MEASURE_WITH_UNIT(LENGTH_MEASURE(0.01),#611,
'DISTANCE_ACCURACY_VALUE',
'Maximum model space distance between geometric entities at asserted c
onnectivities');
#609=(
GEOMETRIC_REPRESENTATION_CONTEXT(3)
GLOBAL_UNCERTAINTY_ASSIGNED_CONTEXT((#607))
GLOBAL_UNIT_ASSIGNED_CONTEXT((#611,#613,#614))
REPRESENTATION_CONTEXT('','3D')
);
#610=(
GEOMETRIC_REPRESENTATION_CONTEXT(3)
GLOBAL_UNCERTAINTY_ASSIGNED_CONTEXT((#608))
GLOBAL_UNIT_ASSIGNED_CONTEXT((#611,#613,#614))
REPRESENTATION_CONTEXT('','3D')
);
#611=(
LENGTH_UNIT()
NAMED_UNIT(*)
SI_UNIT(.MILLI.,.METRE.)
);
#612=(
LENGTH_UNIT()
NAMED_UNIT(*)
SI_UNIT(.CENTI.,.METRE.)
);
#613=(
NAMED_UNIT(*)
PLANE_ANGLE_UNIT()
SI_UNIT($,.RADIAN.)
);
#614=(
NAMED_UNIT(*)
SI_UNIT($,.STERADIAN.)
SOLID_ANGLE_UNIT()
);
#615=SHAPE_DEFINITION_REPRESENTATION(#616,#617);
#616=PRODUCT_DEFINITION_SHAPE('',$,#619);
#617=SHAPE_REPRESENTATION('',(#371),#609);
#618=PRODUCT_DEFINITION_CONTEXT('part definition',#623,'design');
#619=PRODUCT_DEFINITION('UNE-033_100-007-013_35','Tube_35',#620,#618);
#620=PRODUCT_DEFINITION_FORMATION('',$,#625);
#621=PRODUCT_RELATED_PRODUCT_CATEGORY('Tube_35','Tube_35',(#625));
#622=APPLICATION_PROTOCOL_DEFINITION('international standard',
'automotive_design',2009,#623);
#623=APPLICATION_CONTEXT(
'Core Data for Automotive Mechanical Design Process');
#624=PRODUCT_CONTEXT('part definition',#623,'mechanical');
#625=PRODUCT('UNE-033_100-007-013_35','Tube_35',$,(#624));
#626=PRESENTATION_STYLE_ASSIGNMENT((#627));
#627=SURFACE_STYLE_USAGE(.BOTH.,#630);
#628=SURFACE_STYLE_RENDERING_WITH_PROPERTIES($,#634,(#629));
#629=SURFACE_STYLE_TRANSPARENT(0.);
#630=SURFACE_SIDE_STYLE('',(#631,#628));
#631=SURFACE_STYLE_FILL_AREA(#632);
#632=FILL_AREA_STYLE('',(#633));
#633=FILL_AREA_STYLE_COLOUR('',#634);
#634=COLOUR_RGB('',0.749019607843137,0.749019607843137,0.749019607843137);
ENDSEC;
END-ISO-10303-21;
