ISO-10303-21;
HEADER;
/* Generated by software containing ST-Developer
 * from STEP Tools, Inc. (www.steptools.com) 
 */

FILE_DESCRIPTION(
/* description */ (''),
/* implementation_level */ '2;1');

FILE_NAME(
/* name */ '7060.stp',
/* time_stamp */ '2024-12-02T15:24:38+01:00',
/* author */ ('sstotter'),
/* organization */ (''),
/* preprocessor_version */ 'ST-DEVELOPER v19.2',
/* originating_system */ 'Autodesk Inventor 2024',
/* authorisation */ '');

FILE_SCHEMA (('AUTOMOTIVE_DESIGN { 1 0 10303 214 3 1 1 }'));
ENDSEC;

DATA;
#10=MECHANICAL_DESIGN_GEOMETRIC_PRESENTATION_REPRESENTATION('',(#13,#14),
#667);
#11=SHAPE_REPRESENTATION_RELATIONSHIP('SRR','None',#674,#12);
#12=ADVANCED_BREP_SHAPE_REPRESENTATION('',(#15,#16),#666);
#13=STYLED_ITEM('',(#683),#15);
#14=STYLED_ITEM('',(#683),#16);
#15=MANIFOLD_SOLID_BREP('Volumenk\X\F6rper1',#411);
#16=MANIFOLD_SOLID_BREP('Volumenk\X\F6rper1',#412);
#17=FACE_OUTER_BOUND('',#39,.T.);
#18=FACE_OUTER_BOUND('',#40,.T.);
#19=FACE_OUTER_BOUND('',#41,.T.);
#20=FACE_OUTER_BOUND('',#42,.T.);
#21=FACE_OUTER_BOUND('',#43,.T.);
#22=FACE_OUTER_BOUND('',#44,.T.);
#23=FACE_OUTER_BOUND('',#45,.T.);
#24=FACE_OUTER_BOUND('',#46,.T.);
#25=FACE_OUTER_BOUND('',#47,.T.);
#26=FACE_OUTER_BOUND('',#48,.T.);
#27=FACE_OUTER_BOUND('',#49,.T.);
#28=FACE_OUTER_BOUND('',#50,.T.);
#29=FACE_OUTER_BOUND('',#51,.T.);
#30=FACE_OUTER_BOUND('',#52,.T.);
#31=FACE_OUTER_BOUND('',#53,.T.);
#32=FACE_OUTER_BOUND('',#54,.T.);
#33=FACE_OUTER_BOUND('',#55,.T.);
#34=FACE_OUTER_BOUND('',#56,.T.);
#35=FACE_OUTER_BOUND('',#57,.T.);
#36=FACE_OUTER_BOUND('',#58,.T.);
#37=FACE_OUTER_BOUND('',#59,.T.);
#38=FACE_OUTER_BOUND('',#60,.T.);
#39=EDGE_LOOP('',(#259,#260,#261,#262));
#40=EDGE_LOOP('',(#263,#264,#265,#266));
#41=EDGE_LOOP('',(#267,#268,#269,#270));
#42=EDGE_LOOP('',(#271,#272,#273,#274));
#43=EDGE_LOOP('',(#275,#276,#277,#278));
#44=EDGE_LOOP('',(#279,#280,#281,#282));
#45=EDGE_LOOP('',(#283,#284,#285,#286));
#46=EDGE_LOOP('',(#287,#288,#289,#290));
#47=EDGE_LOOP('',(#291,#292,#293,#294));
#48=EDGE_LOOP('',(#295,#296,#297,#298));
#49=EDGE_LOOP('',(#299,#300,#301,#302));
#50=EDGE_LOOP('',(#303,#304,#305,#306));
#51=EDGE_LOOP('',(#307,#308,#309,#310));
#52=EDGE_LOOP('',(#311,#312,#313,#314));
#53=EDGE_LOOP('',(#315,#316,#317,#318,#319,#320,#321,#322,#323,#324,#325,
#326,#327,#328));
#54=EDGE_LOOP('',(#329,#330,#331,#332,#333,#334,#335,#336,#337,#338,#339,
#340,#341,#342));
#55=EDGE_LOOP('',(#343,#344,#345,#346));
#56=EDGE_LOOP('',(#347,#348,#349,#350));
#57=EDGE_LOOP('',(#351,#352,#353,#354));
#58=EDGE_LOOP('',(#355,#356,#357,#358));
#59=EDGE_LOOP('',(#359,#360,#361,#362));
#60=EDGE_LOOP('',(#363,#364,#365,#366));
#61=LINE('',#555,#115);
#62=LINE('',#557,#116);
#63=LINE('',#559,#117);
#64=LINE('',#560,#118);
#65=LINE('',#563,#119);
#66=LINE('',#565,#120);
#67=LINE('',#566,#121);
#68=LINE('',#569,#122);
#69=LINE('',#571,#123);
#70=LINE('',#572,#124);
#71=LINE('',#575,#125);
#72=LINE('',#577,#126);
#73=LINE('',#578,#127);
#74=LINE('',#581,#128);
#75=LINE('',#583,#129);
#76=LINE('',#584,#130);
#77=LINE('',#587,#131);
#78=LINE('',#589,#132);
#79=LINE('',#590,#133);
#80=LINE('',#593,#134);
#81=LINE('',#595,#135);
#82=LINE('',#596,#136);
#83=LINE('',#599,#137);
#84=LINE('',#601,#138);
#85=LINE('',#602,#139);
#86=LINE('',#605,#140);
#87=LINE('',#607,#141);
#88=LINE('',#608,#142);
#89=LINE('',#611,#143);
#90=LINE('',#613,#144);
#91=LINE('',#614,#145);
#92=LINE('',#617,#146);
#93=LINE('',#619,#147);
#94=LINE('',#620,#148);
#95=LINE('',#623,#149);
#96=LINE('',#625,#150);
#97=LINE('',#626,#151);
#98=LINE('',#629,#152);
#99=LINE('',#631,#153);
#100=LINE('',#632,#154);
#101=LINE('',#634,#155);
#102=LINE('',#635,#156);
#103=LINE('',#641,#157);
#104=LINE('',#643,#158);
#105=LINE('',#645,#159);
#106=LINE('',#646,#160);
#107=LINE('',#649,#161);
#108=LINE('',#651,#162);
#109=LINE('',#652,#163);
#110=LINE('',#655,#164);
#111=LINE('',#657,#165);
#112=LINE('',#658,#166);
#113=LINE('',#660,#167);
#114=LINE('',#661,#168);
#115=VECTOR('',#455,10.);
#116=VECTOR('',#456,10.);
#117=VECTOR('',#457,10.);
#118=VECTOR('',#458,10.);
#119=VECTOR('',#461,10.);
#120=VECTOR('',#462,10.);
#121=VECTOR('',#463,10.);
#122=VECTOR('',#466,10.);
#123=VECTOR('',#467,10.);
#124=VECTOR('',#468,10.);
#125=VECTOR('',#471,10.);
#126=VECTOR('',#472,10.);
#127=VECTOR('',#473,10.);
#128=VECTOR('',#476,10.);
#129=VECTOR('',#477,10.);
#130=VECTOR('',#478,10.);
#131=VECTOR('',#481,10.);
#132=VECTOR('',#482,10.);
#133=VECTOR('',#483,10.);
#134=VECTOR('',#486,10.);
#135=VECTOR('',#487,10.);
#136=VECTOR('',#488,10.);
#137=VECTOR('',#491,10.);
#138=VECTOR('',#492,10.);
#139=VECTOR('',#493,10.);
#140=VECTOR('',#496,10.);
#141=VECTOR('',#497,10.);
#142=VECTOR('',#498,10.);
#143=VECTOR('',#501,10.);
#144=VECTOR('',#502,10.);
#145=VECTOR('',#503,10.);
#146=VECTOR('',#506,10.);
#147=VECTOR('',#507,10.);
#148=VECTOR('',#508,10.);
#149=VECTOR('',#511,10.);
#150=VECTOR('',#512,10.);
#151=VECTOR('',#513,10.);
#152=VECTOR('',#516,10.);
#153=VECTOR('',#517,10.);
#154=VECTOR('',#518,10.);
#155=VECTOR('',#521,10.);
#156=VECTOR('',#522,10.);
#157=VECTOR('',#529,10.);
#158=VECTOR('',#530,10.);
#159=VECTOR('',#531,10.);
#160=VECTOR('',#532,10.);
#161=VECTOR('',#535,10.);
#162=VECTOR('',#536,10.);
#163=VECTOR('',#537,10.);
#164=VECTOR('',#540,10.);
#165=VECTOR('',#541,10.);
#166=VECTOR('',#542,10.);
#167=VECTOR('',#545,10.);
#168=VECTOR('',#546,10.);
#169=VERTEX_POINT('',#553);
#170=VERTEX_POINT('',#554);
#171=VERTEX_POINT('',#556);
#172=VERTEX_POINT('',#558);
#173=VERTEX_POINT('',#562);
#174=VERTEX_POINT('',#564);
#175=VERTEX_POINT('',#568);
#176=VERTEX_POINT('',#570);
#177=VERTEX_POINT('',#574);
#178=VERTEX_POINT('',#576);
#179=VERTEX_POINT('',#580);
#180=VERTEX_POINT('',#582);
#181=VERTEX_POINT('',#586);
#182=VERTEX_POINT('',#588);
#183=VERTEX_POINT('',#592);
#184=VERTEX_POINT('',#594);
#185=VERTEX_POINT('',#598);
#186=VERTEX_POINT('',#600);
#187=VERTEX_POINT('',#604);
#188=VERTEX_POINT('',#606);
#189=VERTEX_POINT('',#610);
#190=VERTEX_POINT('',#612);
#191=VERTEX_POINT('',#616);
#192=VERTEX_POINT('',#618);
#193=VERTEX_POINT('',#622);
#194=VERTEX_POINT('',#624);
#195=VERTEX_POINT('',#628);
#196=VERTEX_POINT('',#630);
#197=VERTEX_POINT('',#639);
#198=VERTEX_POINT('',#640);
#199=VERTEX_POINT('',#642);
#200=VERTEX_POINT('',#644);
#201=VERTEX_POINT('',#648);
#202=VERTEX_POINT('',#650);
#203=VERTEX_POINT('',#654);
#204=VERTEX_POINT('',#656);
#205=EDGE_CURVE('',#169,#170,#61,.T.);
#206=EDGE_CURVE('',#170,#171,#62,.T.);
#207=EDGE_CURVE('',#172,#171,#63,.T.);
#208=EDGE_CURVE('',#169,#172,#64,.T.);
#209=EDGE_CURVE('',#173,#169,#65,.T.);
#210=EDGE_CURVE('',#174,#172,#66,.T.);
#211=EDGE_CURVE('',#173,#174,#67,.T.);
#212=EDGE_CURVE('',#175,#173,#68,.T.);
#213=EDGE_CURVE('',#176,#174,#69,.T.);
#214=EDGE_CURVE('',#175,#176,#70,.T.);
#215=EDGE_CURVE('',#177,#175,#71,.T.);
#216=EDGE_CURVE('',#178,#176,#72,.T.);
#217=EDGE_CURVE('',#177,#178,#73,.T.);
#218=EDGE_CURVE('',#179,#177,#74,.T.);
#219=EDGE_CURVE('',#180,#178,#75,.T.);
#220=EDGE_CURVE('',#179,#180,#76,.T.);
#221=EDGE_CURVE('',#181,#179,#77,.T.);
#222=EDGE_CURVE('',#182,#180,#78,.T.);
#223=EDGE_CURVE('',#181,#182,#79,.T.);
#224=EDGE_CURVE('',#183,#181,#80,.T.);
#225=EDGE_CURVE('',#184,#182,#81,.T.);
#226=EDGE_CURVE('',#183,#184,#82,.T.);
#227=EDGE_CURVE('',#185,#183,#83,.T.);
#228=EDGE_CURVE('',#186,#184,#84,.T.);
#229=EDGE_CURVE('',#185,#186,#85,.T.);
#230=EDGE_CURVE('',#187,#185,#86,.T.);
#231=EDGE_CURVE('',#188,#186,#87,.T.);
#232=EDGE_CURVE('',#187,#188,#88,.T.);
#233=EDGE_CURVE('',#189,#187,#89,.T.);
#234=EDGE_CURVE('',#190,#188,#90,.T.);
#235=EDGE_CURVE('',#189,#190,#91,.T.);
#236=EDGE_CURVE('',#191,#189,#92,.T.);
#237=EDGE_CURVE('',#192,#190,#93,.T.);
#238=EDGE_CURVE('',#191,#192,#94,.T.);
#239=EDGE_CURVE('',#193,#191,#95,.T.);
#240=EDGE_CURVE('',#194,#192,#96,.T.);
#241=EDGE_CURVE('',#193,#194,#97,.T.);
#242=EDGE_CURVE('',#195,#193,#98,.T.);
#243=EDGE_CURVE('',#196,#194,#99,.T.);
#244=EDGE_CURVE('',#195,#196,#100,.T.);
#245=EDGE_CURVE('',#170,#195,#101,.T.);
#246=EDGE_CURVE('',#171,#196,#102,.T.);
#247=EDGE_CURVE('',#197,#198,#103,.T.);
#248=EDGE_CURVE('',#198,#199,#104,.T.);
#249=EDGE_CURVE('',#200,#199,#105,.T.);
#250=EDGE_CURVE('',#197,#200,#106,.T.);
#251=EDGE_CURVE('',#201,#197,#107,.T.);
#252=EDGE_CURVE('',#202,#200,#108,.T.);
#253=EDGE_CURVE('',#201,#202,#109,.T.);
#254=EDGE_CURVE('',#203,#201,#110,.T.);
#255=EDGE_CURVE('',#204,#202,#111,.T.);
#256=EDGE_CURVE('',#203,#204,#112,.T.);
#257=EDGE_CURVE('',#198,#203,#113,.T.);
#258=EDGE_CURVE('',#199,#204,#114,.T.);
#259=ORIENTED_EDGE('',*,*,#205,.T.);
#260=ORIENTED_EDGE('',*,*,#206,.T.);
#261=ORIENTED_EDGE('',*,*,#207,.F.);
#262=ORIENTED_EDGE('',*,*,#208,.F.);
#263=ORIENTED_EDGE('',*,*,#209,.T.);
#264=ORIENTED_EDGE('',*,*,#208,.T.);
#265=ORIENTED_EDGE('',*,*,#210,.F.);
#266=ORIENTED_EDGE('',*,*,#211,.F.);
#267=ORIENTED_EDGE('',*,*,#212,.T.);
#268=ORIENTED_EDGE('',*,*,#211,.T.);
#269=ORIENTED_EDGE('',*,*,#213,.F.);
#270=ORIENTED_EDGE('',*,*,#214,.F.);
#271=ORIENTED_EDGE('',*,*,#215,.T.);
#272=ORIENTED_EDGE('',*,*,#214,.T.);
#273=ORIENTED_EDGE('',*,*,#216,.F.);
#274=ORIENTED_EDGE('',*,*,#217,.F.);
#275=ORIENTED_EDGE('',*,*,#218,.T.);
#276=ORIENTED_EDGE('',*,*,#217,.T.);
#277=ORIENTED_EDGE('',*,*,#219,.F.);
#278=ORIENTED_EDGE('',*,*,#220,.F.);
#279=ORIENTED_EDGE('',*,*,#221,.T.);
#280=ORIENTED_EDGE('',*,*,#220,.T.);
#281=ORIENTED_EDGE('',*,*,#222,.F.);
#282=ORIENTED_EDGE('',*,*,#223,.F.);
#283=ORIENTED_EDGE('',*,*,#224,.T.);
#284=ORIENTED_EDGE('',*,*,#223,.T.);
#285=ORIENTED_EDGE('',*,*,#225,.F.);
#286=ORIENTED_EDGE('',*,*,#226,.F.);
#287=ORIENTED_EDGE('',*,*,#227,.T.);
#288=ORIENTED_EDGE('',*,*,#226,.T.);
#289=ORIENTED_EDGE('',*,*,#228,.F.);
#290=ORIENTED_EDGE('',*,*,#229,.F.);
#291=ORIENTED_EDGE('',*,*,#230,.T.);
#292=ORIENTED_EDGE('',*,*,#229,.T.);
#293=ORIENTED_EDGE('',*,*,#231,.F.);
#294=ORIENTED_EDGE('',*,*,#232,.F.);
#295=ORIENTED_EDGE('',*,*,#233,.T.);
#296=ORIENTED_EDGE('',*,*,#232,.T.);
#297=ORIENTED_EDGE('',*,*,#234,.F.);
#298=ORIENTED_EDGE('',*,*,#235,.F.);
#299=ORIENTED_EDGE('',*,*,#236,.T.);
#300=ORIENTED_EDGE('',*,*,#235,.T.);
#301=ORIENTED_EDGE('',*,*,#237,.F.);
#302=ORIENTED_EDGE('',*,*,#238,.F.);
#303=ORIENTED_EDGE('',*,*,#239,.T.);
#304=ORIENTED_EDGE('',*,*,#238,.T.);
#305=ORIENTED_EDGE('',*,*,#240,.F.);
#306=ORIENTED_EDGE('',*,*,#241,.F.);
#307=ORIENTED_EDGE('',*,*,#242,.T.);
#308=ORIENTED_EDGE('',*,*,#241,.T.);
#309=ORIENTED_EDGE('',*,*,#243,.F.);
#310=ORIENTED_EDGE('',*,*,#244,.F.);
#311=ORIENTED_EDGE('',*,*,#245,.T.);
#312=ORIENTED_EDGE('',*,*,#244,.T.);
#313=ORIENTED_EDGE('',*,*,#246,.F.);
#314=ORIENTED_EDGE('',*,*,#206,.F.);
#315=ORIENTED_EDGE('',*,*,#246,.T.);
#316=ORIENTED_EDGE('',*,*,#243,.T.);
#317=ORIENTED_EDGE('',*,*,#240,.T.);
#318=ORIENTED_EDGE('',*,*,#237,.T.);
#319=ORIENTED_EDGE('',*,*,#234,.T.);
#320=ORIENTED_EDGE('',*,*,#231,.T.);
#321=ORIENTED_EDGE('',*,*,#228,.T.);
#322=ORIENTED_EDGE('',*,*,#225,.T.);
#323=ORIENTED_EDGE('',*,*,#222,.T.);
#324=ORIENTED_EDGE('',*,*,#219,.T.);
#325=ORIENTED_EDGE('',*,*,#216,.T.);
#326=ORIENTED_EDGE('',*,*,#213,.T.);
#327=ORIENTED_EDGE('',*,*,#210,.T.);
#328=ORIENTED_EDGE('',*,*,#207,.T.);
#329=ORIENTED_EDGE('',*,*,#245,.F.);
#330=ORIENTED_EDGE('',*,*,#205,.F.);
#331=ORIENTED_EDGE('',*,*,#209,.F.);
#332=ORIENTED_EDGE('',*,*,#212,.F.);
#333=ORIENTED_EDGE('',*,*,#215,.F.);
#334=ORIENTED_EDGE('',*,*,#218,.F.);
#335=ORIENTED_EDGE('',*,*,#221,.F.);
#336=ORIENTED_EDGE('',*,*,#224,.F.);
#337=ORIENTED_EDGE('',*,*,#227,.F.);
#338=ORIENTED_EDGE('',*,*,#230,.F.);
#339=ORIENTED_EDGE('',*,*,#233,.F.);
#340=ORIENTED_EDGE('',*,*,#236,.F.);
#341=ORIENTED_EDGE('',*,*,#239,.F.);
#342=ORIENTED_EDGE('',*,*,#242,.F.);
#343=ORIENTED_EDGE('',*,*,#247,.T.);
#344=ORIENTED_EDGE('',*,*,#248,.T.);
#345=ORIENTED_EDGE('',*,*,#249,.F.);
#346=ORIENTED_EDGE('',*,*,#250,.F.);
#347=ORIENTED_EDGE('',*,*,#251,.T.);
#348=ORIENTED_EDGE('',*,*,#250,.T.);
#349=ORIENTED_EDGE('',*,*,#252,.F.);
#350=ORIENTED_EDGE('',*,*,#253,.F.);
#351=ORIENTED_EDGE('',*,*,#254,.T.);
#352=ORIENTED_EDGE('',*,*,#253,.T.);
#353=ORIENTED_EDGE('',*,*,#255,.F.);
#354=ORIENTED_EDGE('',*,*,#256,.F.);
#355=ORIENTED_EDGE('',*,*,#257,.T.);
#356=ORIENTED_EDGE('',*,*,#256,.T.);
#357=ORIENTED_EDGE('',*,*,#258,.F.);
#358=ORIENTED_EDGE('',*,*,#248,.F.);
#359=ORIENTED_EDGE('',*,*,#258,.T.);
#360=ORIENTED_EDGE('',*,*,#255,.T.);
#361=ORIENTED_EDGE('',*,*,#252,.T.);
#362=ORIENTED_EDGE('',*,*,#249,.T.);
#363=ORIENTED_EDGE('',*,*,#257,.F.);
#364=ORIENTED_EDGE('',*,*,#247,.F.);
#365=ORIENTED_EDGE('',*,*,#251,.F.);
#366=ORIENTED_EDGE('',*,*,#254,.F.);
#367=PLANE('',#429);
#368=PLANE('',#430);
#369=PLANE('',#431);
#370=PLANE('',#432);
#371=PLANE('',#433);
#372=PLANE('',#434);
#373=PLANE('',#435);
#374=PLANE('',#436);
#375=PLANE('',#437);
#376=PLANE('',#438);
#377=PLANE('',#439);
#378=PLANE('',#440);
#379=PLANE('',#441);
#380=PLANE('',#442);
#381=PLANE('',#443);
#382=PLANE('',#444);
#383=PLANE('',#445);
#384=PLANE('',#446);
#385=PLANE('',#447);
#386=PLANE('',#448);
#387=PLANE('',#449);
#388=PLANE('',#450);
#389=ADVANCED_FACE('',(#17),#367,.T.);
#390=ADVANCED_FACE('',(#18),#368,.T.);
#391=ADVANCED_FACE('',(#19),#369,.T.);
#392=ADVANCED_FACE('',(#20),#370,.T.);
#393=ADVANCED_FACE('',(#21),#371,.T.);
#394=ADVANCED_FACE('',(#22),#372,.T.);
#395=ADVANCED_FACE('',(#23),#373,.T.);
#396=ADVANCED_FACE('',(#24),#374,.T.);
#397=ADVANCED_FACE('',(#25),#375,.T.);
#398=ADVANCED_FACE('',(#26),#376,.T.);
#399=ADVANCED_FACE('',(#27),#377,.T.);
#400=ADVANCED_FACE('',(#28),#378,.T.);
#401=ADVANCED_FACE('',(#29),#379,.T.);
#402=ADVANCED_FACE('',(#30),#380,.T.);
#403=ADVANCED_FACE('',(#31),#381,.T.);
#404=ADVANCED_FACE('',(#32),#382,.F.);
#405=ADVANCED_FACE('',(#33),#383,.T.);
#406=ADVANCED_FACE('',(#34),#384,.T.);
#407=ADVANCED_FACE('',(#35),#385,.T.);
#408=ADVANCED_FACE('',(#36),#386,.T.);
#409=ADVANCED_FACE('',(#37),#387,.T.);
#410=ADVANCED_FACE('',(#38),#388,.F.);
#411=CLOSED_SHELL('',(#389,#390,#391,#392,#393,#394,#395,#396,#397,#398,
#399,#400,#401,#402,#403,#404));
#412=CLOSED_SHELL('',(#405,#406,#407,#408,#409,#410));
#413=DERIVED_UNIT_ELEMENT(#416,1.);
#414=DERIVED_UNIT_ELEMENT(#669,-3.);
#415=DIMENSIONAL_EXPONENTS(0.,1.,0.,0.,0.,0.,0.);
#416=(
CONVERSION_BASED_UNIT('gram',#418)
MASS_UNIT()
NAMED_UNIT(#415)
);
#417=(
MASS_UNIT()
NAMED_UNIT(*)
SI_UNIT(.KILO.,.GRAM.)
);
#418=MASS_MEASURE_WITH_UNIT(MASS_MEASURE(0.001),#417);
#419=DERIVED_UNIT((#413,#414));
#420=MEASURE_REPRESENTATION_ITEM('density measure',
POSITIVE_RATIO_MEASURE(1.),#419);
#421=PROPERTY_DEFINITION_REPRESENTATION(#426,#423);
#422=PROPERTY_DEFINITION_REPRESENTATION(#427,#424);
#423=REPRESENTATION('material name',(#425),#666);
#424=REPRESENTATION('density',(#420),#666);
#425=DESCRIPTIVE_REPRESENTATION_ITEM('Generisch','Generisch');
#426=PROPERTY_DEFINITION('material property','material name',#676);
#427=PROPERTY_DEFINITION('material property','density of part',#676);
#428=AXIS2_PLACEMENT_3D('',#551,#451,#452);
#429=AXIS2_PLACEMENT_3D('',#552,#453,#454);
#430=AXIS2_PLACEMENT_3D('',#561,#459,#460);
#431=AXIS2_PLACEMENT_3D('',#567,#464,#465);
#432=AXIS2_PLACEMENT_3D('',#573,#469,#470);
#433=AXIS2_PLACEMENT_3D('',#579,#474,#475);
#434=AXIS2_PLACEMENT_3D('',#585,#479,#480);
#435=AXIS2_PLACEMENT_3D('',#591,#484,#485);
#436=AXIS2_PLACEMENT_3D('',#597,#489,#490);
#437=AXIS2_PLACEMENT_3D('',#603,#494,#495);
#438=AXIS2_PLACEMENT_3D('',#609,#499,#500);
#439=AXIS2_PLACEMENT_3D('',#615,#504,#505);
#440=AXIS2_PLACEMENT_3D('',#621,#509,#510);
#441=AXIS2_PLACEMENT_3D('',#627,#514,#515);
#442=AXIS2_PLACEMENT_3D('',#633,#519,#520);
#443=AXIS2_PLACEMENT_3D('',#636,#523,#524);
#444=AXIS2_PLACEMENT_3D('',#637,#525,#526);
#445=AXIS2_PLACEMENT_3D('',#638,#527,#528);
#446=AXIS2_PLACEMENT_3D('',#647,#533,#534);
#447=AXIS2_PLACEMENT_3D('',#653,#538,#539);
#448=AXIS2_PLACEMENT_3D('',#659,#543,#544);
#449=AXIS2_PLACEMENT_3D('',#662,#547,#548);
#450=AXIS2_PLACEMENT_3D('',#663,#549,#550);
#451=DIRECTION('axis',(0.,0.,1.));
#452=DIRECTION('refdir',(1.,0.,0.));
#453=DIRECTION('center_axis',(0.,-1.,4.44089209850063E-16));
#454=DIRECTION('ref_axis',(0.,-4.44089209850063E-16,-1.));
#455=DIRECTION('',(0.,-4.44089209850063E-16,-1.));
#456=DIRECTION('',(1.,0.,0.));
#457=DIRECTION('',(0.,-4.44089209850063E-16,-1.));
#458=DIRECTION('',(1.,0.,0.));
#459=DIRECTION('center_axis',(0.,-3.33066907387547E-16,1.));
#460=DIRECTION('ref_axis',(0.,-1.,-3.33066907387547E-16));
#461=DIRECTION('',(0.,-1.,-3.33066907387547E-16));
#462=DIRECTION('',(0.,-1.,-3.33066907387547E-16));
#463=DIRECTION('',(1.,0.,0.));
#464=DIRECTION('center_axis',(0.,-1.,-6.10622663543836E-16));
#465=DIRECTION('ref_axis',(0.,6.10622663543836E-16,-1.));
#466=DIRECTION('',(0.,6.10622663543836E-16,-1.));
#467=DIRECTION('',(0.,6.10622663543836E-16,-1.));
#468=DIRECTION('',(1.,0.,0.));
#469=DIRECTION('center_axis',(0.,0.,1.));
#470=DIRECTION('ref_axis',(0.,-1.,0.));
#471=DIRECTION('',(0.,-1.,0.));
#472=DIRECTION('',(0.,-1.,0.));
#473=DIRECTION('',(1.,0.,0.));
#474=DIRECTION('center_axis',(0.,1.,6.12323399573677E-16));
#475=DIRECTION('ref_axis',(0.,-6.12323399573677E-16,1.));
#476=DIRECTION('',(0.,-6.12323399573677E-16,1.));
#477=DIRECTION('',(0.,-6.12323399573677E-16,1.));
#478=DIRECTION('',(1.,0.,0.));
#479=DIRECTION('center_axis',(0.,0.707106781186548,-0.707106781186547));
#480=DIRECTION('ref_axis',(0.,0.707106781186547,0.707106781186548));
#481=DIRECTION('',(0.,0.707106781186547,0.707106781186548));
#482=DIRECTION('',(0.,0.707106781186547,0.707106781186548));
#483=DIRECTION('',(1.,0.,0.));
#484=DIRECTION('center_axis',(0.,1.14850657719844E-16,-1.));
#485=DIRECTION('ref_axis',(0.,1.,1.14850657719844E-16));
#486=DIRECTION('',(0.,1.,1.14850657719844E-16));
#487=DIRECTION('',(0.,1.,1.14850657719844E-16));
#488=DIRECTION('',(1.,0.,0.));
#489=DIRECTION('center_axis',(0.,1.,2.40048221540574E-16));
#490=DIRECTION('ref_axis',(0.,-2.40048221540574E-16,1.));
#491=DIRECTION('',(0.,-2.40048221540574E-16,1.));
#492=DIRECTION('',(0.,-2.40048221540574E-16,1.));
#493=DIRECTION('',(1.,0.,0.));
#494=DIRECTION('center_axis',(0.,-1.14850657719844E-16,1.));
#495=DIRECTION('ref_axis',(0.,-1.,-1.14850657719844E-16));
#496=DIRECTION('',(0.,-1.,-1.14850657719844E-16));
#497=DIRECTION('',(0.,-1.,-1.14850657719844E-16));
#498=DIRECTION('',(1.,0.,0.));
#499=DIRECTION('center_axis',(0.,0.707106781186547,0.707106781186548));
#500=DIRECTION('ref_axis',(0.,-0.707106781186548,0.707106781186547));
#501=DIRECTION('',(0.,-0.707106781186548,0.707106781186547));
#502=DIRECTION('',(0.,-0.707106781186548,0.707106781186547));
#503=DIRECTION('',(1.,0.,0.));
#504=DIRECTION('center_axis',(0.,1.,6.12323399573677E-16));
#505=DIRECTION('ref_axis',(0.,-6.12323399573677E-16,1.));
#506=DIRECTION('',(0.,-6.12323399573677E-16,1.));
#507=DIRECTION('',(0.,-6.12323399573677E-16,1.));
#508=DIRECTION('',(1.,0.,0.));
#509=DIRECTION('center_axis',(0.,0.,-1.));
#510=DIRECTION('ref_axis',(0.,1.,0.));
#511=DIRECTION('',(0.,1.,0.));
#512=DIRECTION('',(0.,1.,0.));
#513=DIRECTION('',(1.,0.,0.));
#514=DIRECTION('center_axis',(0.,-1.,-6.10622663543836E-16));
#515=DIRECTION('ref_axis',(0.,6.10622663543836E-16,-1.));
#516=DIRECTION('',(0.,6.10622663543836E-16,-1.));
#517=DIRECTION('',(0.,6.10622663543836E-16,-1.));
#518=DIRECTION('',(1.,0.,0.));
#519=DIRECTION('center_axis',(0.,5.18104078158406E-16,-1.));
#520=DIRECTION('ref_axis',(0.,1.,5.18104078158406E-16));
#521=DIRECTION('',(0.,1.,5.18104078158406E-16));
#522=DIRECTION('',(0.,1.,5.18104078158406E-16));
#523=DIRECTION('center_axis',(1.,0.,0.));
#524=DIRECTION('ref_axis',(0.,0.,-1.));
#525=DIRECTION('center_axis',(1.,0.,0.));
#526=DIRECTION('ref_axis',(0.,0.,-1.));
#527=DIRECTION('center_axis',(0.,-0.707106781186547,-0.707106781186548));
#528=DIRECTION('ref_axis',(0.,0.707106781186548,-0.707106781186547));
#529=DIRECTION('',(0.,0.707106781186548,-0.707106781186547));
#530=DIRECTION('',(1.,0.,0.));
#531=DIRECTION('',(0.,0.707106781186548,-0.707106781186547));
#532=DIRECTION('',(1.,0.,0.));
#533=DIRECTION('center_axis',(0.,-1.,-1.2037709045167E-16));
#534=DIRECTION('ref_axis',(0.,1.2037709045167E-16,-1.));
#535=DIRECTION('',(0.,1.2037709045167E-16,-1.));
#536=DIRECTION('',(0.,1.2037709045167E-16,-1.));
#537=DIRECTION('',(1.,0.,0.));
#538=DIRECTION('center_axis',(0.,-0.707106781186548,0.707106781186547));
#539=DIRECTION('ref_axis',(0.,-0.707106781186547,-0.707106781186548));
#540=DIRECTION('',(0.,-0.707106781186547,-0.707106781186548));
#541=DIRECTION('',(0.,-0.707106781186547,-0.707106781186548));
#542=DIRECTION('',(1.,0.,0.));
#543=DIRECTION('center_axis',(0.,1.,3.67394039744206E-16));
#544=DIRECTION('ref_axis',(0.,-3.67394039744206E-16,1.));
#545=DIRECTION('',(0.,-3.67394039744206E-16,1.));
#546=DIRECTION('',(0.,-3.67394039744206E-16,1.));
#547=DIRECTION('center_axis',(1.,0.,0.));
#548=DIRECTION('ref_axis',(0.,0.,-1.));
#549=DIRECTION('center_axis',(1.,0.,0.));
#550=DIRECTION('ref_axis',(0.,0.,-1.));
#551=CARTESIAN_POINT('',(0.,0.,0.));
#552=CARTESIAN_POINT('Origin',(0.,-60.,20.));
#553=CARTESIAN_POINT('',(0.,-60.,20.));
#554=CARTESIAN_POINT('',(0.,-60.,-20.));
#555=CARTESIAN_POINT('',(0.,-60.,20.));
#556=CARTESIAN_POINT('',(1000.,-60.,-20.));
#557=CARTESIAN_POINT('',(0.,-60.,-20.));
#558=CARTESIAN_POINT('',(1000.,-60.,20.));
#559=CARTESIAN_POINT('',(1000.,-60.,20.));
#560=CARTESIAN_POINT('',(0.,-60.,20.));
#561=CARTESIAN_POINT('Origin',(0.,-1.50000000000002,20.));
#562=CARTESIAN_POINT('',(0.,-1.50000000000002,20.));
#563=CARTESIAN_POINT('',(0.,1.3175226425659E-14,20.));
#564=CARTESIAN_POINT('',(1000.,-1.50000000000002,20.));
#565=CARTESIAN_POINT('',(1000.,1.3175226425659E-14,20.));
#566=CARTESIAN_POINT('',(0.,-1.50000000000002,20.));
#567=CARTESIAN_POINT('Origin',(0.,-1.50000000000002,25.));
#568=CARTESIAN_POINT('',(0.,-1.50000000000002,25.));
#569=CARTESIAN_POINT('',(0.,-1.50000000000002,25.));
#570=CARTESIAN_POINT('',(1000.,-1.50000000000002,25.));
#571=CARTESIAN_POINT('',(1000.,-1.50000000000002,25.));
#572=CARTESIAN_POINT('',(0.,-1.50000000000002,25.));
#573=CARTESIAN_POINT('Origin',(0.,-1.99005104861445E-14,25.));
#574=CARTESIAN_POINT('',(0.,-1.99005104861445E-14,25.));
#575=CARTESIAN_POINT('',(0.,-1.99005104861445E-14,25.));
#576=CARTESIAN_POINT('',(1000.,-1.77635683940025E-14,25.));
#577=CARTESIAN_POINT('',(1000.,-1.99005104861445E-14,25.));
#578=CARTESIAN_POINT('',(0.,-1.99005104861445E-14,25.));
#579=CARTESIAN_POINT('Origin',(0.,-1.68388934882761E-14,20.));
#580=CARTESIAN_POINT('',(0.,-5.96381954829424E-15,20.));
#581=CARTESIAN_POINT('',(0.,1.07156594925393E-14,-25.));
#582=CARTESIAN_POINT('',(1000.,-8.88178419700125E-15,20.));
#583=CARTESIAN_POINT('',(1000.,1.07156594925393E-14,-25.));
#584=CARTESIAN_POINT('',(0.,-5.96381954829424E-15,20.));
#585=CARTESIAN_POINT('Origin',(0.,-1.49999999999999,18.5));
#586=CARTESIAN_POINT('',(0.,-1.49999999999999,18.5));
#587=CARTESIAN_POINT('',(0.,-1.49999999999999,18.5));
#588=CARTESIAN_POINT('',(1000.,-1.49999999999999,18.5));
#589=CARTESIAN_POINT('',(1000.,-1.49999999999999,18.5));
#590=CARTESIAN_POINT('',(0.,-1.49999999999999,18.5));
#591=CARTESIAN_POINT('Origin',(0.,-58.,18.5));
#592=CARTESIAN_POINT('',(0.,-58.,18.5));
#593=CARTESIAN_POINT('',(0.,-58.,18.5));
#594=CARTESIAN_POINT('',(1000.,-58.,18.5));
#595=CARTESIAN_POINT('',(1000.,-58.,18.5));
#596=CARTESIAN_POINT('',(0.,-58.,18.5));
#597=CARTESIAN_POINT('Origin',(0.,-58.,-18.5));
#598=CARTESIAN_POINT('',(0.,-58.,-18.5));
#599=CARTESIAN_POINT('',(0.,-58.,-18.5));
#600=CARTESIAN_POINT('',(1000.,-58.,-18.5));
#601=CARTESIAN_POINT('',(1000.,-58.,-18.5));
#602=CARTESIAN_POINT('',(0.,-58.,-18.5));
#603=CARTESIAN_POINT('Origin',(0.,-1.49999999999999,-18.5));
#604=CARTESIAN_POINT('',(0.,-1.49999999999999,-18.5));
#605=CARTESIAN_POINT('',(0.,0.,-18.5));
#606=CARTESIAN_POINT('',(1000.,-1.49999999999999,-18.5));
#607=CARTESIAN_POINT('',(1000.,0.,-18.5));
#608=CARTESIAN_POINT('',(0.,-1.49999999999999,-18.5));
#609=CARTESIAN_POINT('Origin',(0.,6.10622663543836E-15,-20.));
#610=CARTESIAN_POINT('',(0.,6.10622663543836E-15,-20.));
#611=CARTESIAN_POINT('',(0.,6.10622663543836E-15,-20.));
#612=CARTESIAN_POINT('',(1000.,8.88178419700125E-15,-20.));
#613=CARTESIAN_POINT('',(1000.,6.10622663543836E-15,-20.));
#614=CARTESIAN_POINT('',(0.,6.10622663543836E-15,-20.));
#615=CARTESIAN_POINT('Origin',(0.,1.07156594925393E-14,-25.));
#616=CARTESIAN_POINT('',(0.,1.07156594925393E-14,-25.));
#617=CARTESIAN_POINT('',(0.,1.07156594925393E-14,-25.));
#618=CARTESIAN_POINT('',(1000.,8.88178419700125E-15,-25.));
#619=CARTESIAN_POINT('',(1000.,1.07156594925393E-14,-25.));
#620=CARTESIAN_POINT('',(0.,1.07156594925393E-14,-25.));
#621=CARTESIAN_POINT('Origin',(0.,-1.49999999999999,-25.));
#622=CARTESIAN_POINT('',(0.,-1.49999999999999,-25.));
#623=CARTESIAN_POINT('',(0.,-1.49999999999999,-25.));
#624=CARTESIAN_POINT('',(1000.,-1.49999999999999,-25.));
#625=CARTESIAN_POINT('',(1000.,-1.49999999999999,-25.));
#626=CARTESIAN_POINT('',(0.,-1.49999999999999,-25.));
#627=CARTESIAN_POINT('Origin',(0.,-1.49999999999999,-20.));
#628=CARTESIAN_POINT('',(0.,-1.49999999999999,-20.));
#629=CARTESIAN_POINT('',(0.,-1.50000000000002,25.));
#630=CARTESIAN_POINT('',(1000.,-1.49999999999999,-20.));
#631=CARTESIAN_POINT('',(1000.,-1.50000000000002,25.));
#632=CARTESIAN_POINT('',(0.,-1.49999999999999,-20.));
#633=CARTESIAN_POINT('Origin',(0.,-60.,-20.));
#634=CARTESIAN_POINT('',(0.,-60.,-20.));
#635=CARTESIAN_POINT('',(1000.,-60.,-20.));
#636=CARTESIAN_POINT('Origin',(1000.,-30.,1.77635683940025E-14));
#637=CARTESIAN_POINT('Origin',(0.,-30.,1.77635683940025E-14));
#638=CARTESIAN_POINT('Origin',(0.,-1.99999999999998,-17.2928932188135));
#639=CARTESIAN_POINT('',(0.,-1.99999999999997,-17.2928932188134));
#640=CARTESIAN_POINT('',(0.,2.76112011985566E-14,-19.2928932188135));
#641=CARTESIAN_POINT('',(0.,-1.49999999999999,-17.7928932188135));
#642=CARTESIAN_POINT('',(1000.,2.76112011985566E-14,-19.2928932188135));
#643=CARTESIAN_POINT('',(0.,2.76112011985566E-14,-19.2928932188135));
#644=CARTESIAN_POINT('',(1000.,-1.99999999999997,-17.2928932188134));
#645=CARTESIAN_POINT('',(1000.,-1.49999999999999,-17.7928932188135));
#646=CARTESIAN_POINT('',(0.,-1.99999999999997,-17.2928932188134));
#647=CARTESIAN_POINT('Origin',(0.,-1.99999999999998,17.2928932188134));
#648=CARTESIAN_POINT('',(0.,-1.99999999999998,17.2928932188134));
#649=CARTESIAN_POINT('',(0.,-1.99999999999998,17.2928932188134));
#650=CARTESIAN_POINT('',(1000.,-1.99999999999998,17.2928932188134));
#651=CARTESIAN_POINT('',(1000.,-1.99999999999998,17.2928932188134));
#652=CARTESIAN_POINT('',(0.,-1.99999999999998,17.2928932188134));
#653=CARTESIAN_POINT('Origin',(0.,1.37575126782113E-14,19.2928932188135));
#654=CARTESIAN_POINT('',(0.,1.34350132425296E-14,19.2928932188135));
#655=CARTESIAN_POINT('',(0.,-5.90400232935992E-15,19.2928932188134));
#656=CARTESIAN_POINT('',(1000.,1.34350132425296E-14,19.2928932188135));
#657=CARTESIAN_POINT('',(1000.,-5.90400232935992E-15,19.2928932188134));
#658=CARTESIAN_POINT('',(0.,1.34350132425296E-14,19.2928932188135));
#659=CARTESIAN_POINT('Origin',(0.,2.76112011985566E-14,-19.2928932188135));
#660=CARTESIAN_POINT('',(0.,2.78709880154272E-14,-20.));
#661=CARTESIAN_POINT('',(1000.,2.78709880154272E-14,-20.));
#662=CARTESIAN_POINT('Origin',(1000.,-0.749999999999994,-4.44089209850063E-15));
#663=CARTESIAN_POINT('Origin',(0.,-0.749999999999994,-4.44089209850063E-15));
#664=UNCERTAINTY_MEASURE_WITH_UNIT(LENGTH_MEASURE(0.01),#668,
'DISTANCE_ACCURACY_VALUE',
'Maximum model space distance between geometric entities at asserted c
onnectivities');
#665=UNCERTAINTY_MEASURE_WITH_UNIT(LENGTH_MEASURE(0.01),#668,
'DISTANCE_ACCURACY_VALUE',
'Maximum model space distance between geometric entities at asserted c
onnectivities');
#666=(
GEOMETRIC_REPRESENTATION_CONTEXT(3)
GLOBAL_UNCERTAINTY_ASSIGNED_CONTEXT((#664))
GLOBAL_UNIT_ASSIGNED_CONTEXT((#668,#670,#671))
REPRESENTATION_CONTEXT('','3D')
);
#667=(
GEOMETRIC_REPRESENTATION_CONTEXT(3)
GLOBAL_UNCERTAINTY_ASSIGNED_CONTEXT((#665))
GLOBAL_UNIT_ASSIGNED_CONTEXT((#668,#670,#671))
REPRESENTATION_CONTEXT('','3D')
);
#668=(
LENGTH_UNIT()
NAMED_UNIT(*)
SI_UNIT(.MILLI.,.METRE.)
);
#669=(
LENGTH_UNIT()
NAMED_UNIT(*)
SI_UNIT(.CENTI.,.METRE.)
);
#670=(
NAMED_UNIT(*)
PLANE_ANGLE_UNIT()
SI_UNIT($,.RADIAN.)
);
#671=(
NAMED_UNIT(*)
SI_UNIT($,.STERADIAN.)
SOLID_ANGLE_UNIT()
);
#672=SHAPE_DEFINITION_REPRESENTATION(#673,#674);
#673=PRODUCT_DEFINITION_SHAPE('',$,#676);
#674=SHAPE_REPRESENTATION('',(#428),#666);
#675=PRODUCT_DEFINITION_CONTEXT('part definition',#680,'design');
#676=PRODUCT_DEFINITION('7060','7060',#677,#675);
#677=PRODUCT_DEFINITION_FORMATION('',$,#682);
#678=PRODUCT_RELATED_PRODUCT_CATEGORY('7060','7060',(#682));
#679=APPLICATION_PROTOCOL_DEFINITION('international standard',
'automotive_design',2009,#680);
#680=APPLICATION_CONTEXT(
'Core Data for Automotive Mechanical Design Process');
#681=PRODUCT_CONTEXT('part definition',#680,'mechanical');
#682=PRODUCT('7060','7060',$,(#681));
#683=PRESENTATION_STYLE_ASSIGNMENT((#684));
#684=SURFACE_STYLE_USAGE(.BOTH.,#687);
#685=SURFACE_STYLE_RENDERING_WITH_PROPERTIES($,#691,(#686));
#686=SURFACE_STYLE_TRANSPARENT(0.);
#687=SURFACE_SIDE_STYLE('',(#688,#685));
#688=SURFACE_STYLE_FILL_AREA(#689);
#689=FILL_AREA_STYLE('',(#690));
#690=FILL_AREA_STYLE_COLOUR('',#691);
#691=COLOUR_RGB('',0.749019607843137,0.749019607843137,0.749019607843137);
ENDSEC;
END-ISO-10303-21;
