ISO-10303-21;
HEADER;
/* Generated by software containing ST-Developer
 * from STEP Tools, Inc. (www.steptools.com) 
 */

FILE_DESCRIPTION(
/* description */ (''),
/* implementation_level */ '2;1');

FILE_NAME(
/* name */ 
'P:\\Projekte\\PP1292 Unex Dakota LED Profile\\22-Zeichnungen St\X\FCc
klisten\\Anwender_3D-Daten\\3D_Corner_16.stp',
/* time_stamp */ '2021-03-22T15:53:42+01:00',
/* author */ ('sstotter'),
/* organization */ (''),
/* preprocessor_version */ 'ST-DEVELOPER v18.1',
/* originating_system */ 'Autodesk Inventor 2021',
/* authorisation */ '');

FILE_SCHEMA (('AUTOMOTIVE_DESIGN { 1 0 10303 214 3 1 1 }'));
ENDSEC;

DATA;
#10=MECHANICAL_DESIGN_GEOMETRIC_PRESENTATION_REPRESENTATION('',(#13,#14),
#437);
#11=SHAPE_REPRESENTATION_RELATIONSHIP('SRR','None',#444,#12);
#12=ADVANCED_BREP_SHAPE_REPRESENTATION('',(#21,#22),#436);
#13=STYLED_ITEM('',(#453),#21);
#14=STYLED_ITEM('',(#453),#22);
#15=CIRCLE('',#286,13.8);
#16=CIRCLE('',#287,13.8);
#17=CIRCLE('',#290,14.8);
#18=CIRCLE('',#291,14.8);
#19=CYLINDRICAL_SURFACE('',#285,13.8);
#20=CYLINDRICAL_SURFACE('',#289,14.8);
#21=MANIFOLD_SOLID_BREP('Volumenk\X\F6rper1',#260);
#22=MANIFOLD_SOLID_BREP('Volumenk\X\F6rper1',#261);
#23=FACE_OUTER_BOUND('',#38,.T.);
#24=FACE_OUTER_BOUND('',#39,.T.);
#25=FACE_OUTER_BOUND('',#40,.T.);
#26=FACE_OUTER_BOUND('',#41,.T.);
#27=FACE_OUTER_BOUND('',#42,.T.);
#28=FACE_OUTER_BOUND('',#43,.T.);
#29=FACE_OUTER_BOUND('',#44,.T.);
#30=FACE_OUTER_BOUND('',#45,.T.);
#31=FACE_OUTER_BOUND('',#46,.T.);
#32=FACE_OUTER_BOUND('',#47,.T.);
#33=FACE_OUTER_BOUND('',#48,.T.);
#34=FACE_OUTER_BOUND('',#49,.T.);
#35=FACE_OUTER_BOUND('',#50,.T.);
#36=FACE_OUTER_BOUND('',#51,.T.);
#37=FACE_OUTER_BOUND('',#52,.T.);
#38=EDGE_LOOP('',(#166,#167,#168,#169));
#39=EDGE_LOOP('',(#170,#171,#172,#173));
#40=EDGE_LOOP('',(#174,#175,#176,#177));
#41=EDGE_LOOP('',(#178,#179,#180,#181));
#42=EDGE_LOOP('',(#182,#183,#184,#185));
#43=EDGE_LOOP('',(#186,#187,#188,#189));
#44=EDGE_LOOP('',(#190,#191,#192,#193));
#45=EDGE_LOOP('',(#194,#195,#196,#197,#198,#199,#200));
#46=EDGE_LOOP('',(#201,#202,#203,#204,#205,#206,#207));
#47=EDGE_LOOP('',(#208,#209,#210,#211));
#48=EDGE_LOOP('',(#212,#213,#214,#215));
#49=EDGE_LOOP('',(#216,#217,#218,#219));
#50=EDGE_LOOP('',(#220,#221,#222,#223));
#51=EDGE_LOOP('',(#224,#225,#226,#227));
#52=EDGE_LOOP('',(#228,#229,#230,#231));
#53=LINE('',#367,#82);
#54=LINE('',#369,#83);
#55=LINE('',#371,#84);
#56=LINE('',#372,#85);
#57=LINE('',#375,#86);
#58=LINE('',#377,#87);
#59=LINE('',#378,#88);
#60=LINE('',#381,#89);
#61=LINE('',#383,#90);
#62=LINE('',#384,#91);
#63=LINE('',#387,#92);
#64=LINE('',#389,#93);
#65=LINE('',#390,#94);
#66=LINE('',#393,#95);
#67=LINE('',#395,#96);
#68=LINE('',#396,#97);
#69=LINE('',#399,#98);
#70=LINE('',#401,#99);
#71=LINE('',#402,#100);
#72=LINE('',#404,#101);
#73=LINE('',#405,#102);
#74=LINE('',#411,#103);
#75=LINE('',#413,#104);
#76=LINE('',#415,#105);
#77=LINE('',#416,#106);
#78=LINE('',#422,#107);
#79=LINE('',#425,#108);
#80=LINE('',#427,#109);
#81=LINE('',#428,#110);
#82=VECTOR('',#298,10.);
#83=VECTOR('',#299,10.);
#84=VECTOR('',#300,10.);
#85=VECTOR('',#301,10.);
#86=VECTOR('',#304,10.);
#87=VECTOR('',#305,10.);
#88=VECTOR('',#306,10.);
#89=VECTOR('',#309,10.);
#90=VECTOR('',#310,10.);
#91=VECTOR('',#311,10.);
#92=VECTOR('',#314,10.);
#93=VECTOR('',#315,10.);
#94=VECTOR('',#316,10.);
#95=VECTOR('',#319,10.);
#96=VECTOR('',#320,10.);
#97=VECTOR('',#321,10.);
#98=VECTOR('',#324,10.);
#99=VECTOR('',#325,10.);
#100=VECTOR('',#326,10.);
#101=VECTOR('',#329,10.);
#102=VECTOR('',#330,10.);
#103=VECTOR('',#337,10.);
#104=VECTOR('',#338,10.);
#105=VECTOR('',#339,10.);
#106=VECTOR('',#340,10.);
#107=VECTOR('',#347,10.);
#108=VECTOR('',#350,10.);
#109=VECTOR('',#351,10.);
#110=VECTOR('',#352,10.);
#111=VERTEX_POINT('',#365);
#112=VERTEX_POINT('',#366);
#113=VERTEX_POINT('',#368);
#114=VERTEX_POINT('',#370);
#115=VERTEX_POINT('',#374);
#116=VERTEX_POINT('',#376);
#117=VERTEX_POINT('',#380);
#118=VERTEX_POINT('',#382);
#119=VERTEX_POINT('',#386);
#120=VERTEX_POINT('',#388);
#121=VERTEX_POINT('',#392);
#122=VERTEX_POINT('',#394);
#123=VERTEX_POINT('',#398);
#124=VERTEX_POINT('',#400);
#125=VERTEX_POINT('',#409);
#126=VERTEX_POINT('',#410);
#127=VERTEX_POINT('',#412);
#128=VERTEX_POINT('',#414);
#129=VERTEX_POINT('',#418);
#130=VERTEX_POINT('',#420);
#131=VERTEX_POINT('',#424);
#132=VERTEX_POINT('',#426);
#133=EDGE_CURVE('',#111,#112,#53,.T.);
#134=EDGE_CURVE('',#112,#113,#54,.T.);
#135=EDGE_CURVE('',#114,#113,#55,.T.);
#136=EDGE_CURVE('',#111,#114,#56,.T.);
#137=EDGE_CURVE('',#115,#111,#57,.T.);
#138=EDGE_CURVE('',#116,#114,#58,.T.);
#139=EDGE_CURVE('',#115,#116,#59,.T.);
#140=EDGE_CURVE('',#117,#115,#60,.T.);
#141=EDGE_CURVE('',#118,#116,#61,.T.);
#142=EDGE_CURVE('',#117,#118,#62,.T.);
#143=EDGE_CURVE('',#119,#117,#63,.T.);
#144=EDGE_CURVE('',#120,#118,#64,.T.);
#145=EDGE_CURVE('',#119,#120,#65,.T.);
#146=EDGE_CURVE('',#121,#119,#66,.T.);
#147=EDGE_CURVE('',#122,#120,#67,.T.);
#148=EDGE_CURVE('',#121,#122,#68,.T.);
#149=EDGE_CURVE('',#123,#121,#69,.T.);
#150=EDGE_CURVE('',#124,#122,#70,.T.);
#151=EDGE_CURVE('',#123,#124,#71,.T.);
#152=EDGE_CURVE('',#112,#123,#72,.T.);
#153=EDGE_CURVE('',#113,#124,#73,.T.);
#154=EDGE_CURVE('',#125,#126,#74,.T.);
#155=EDGE_CURVE('',#126,#127,#75,.T.);
#156=EDGE_CURVE('',#128,#127,#76,.T.);
#157=EDGE_CURVE('',#125,#128,#77,.T.);
#158=EDGE_CURVE('',#129,#125,#15,.T.);
#159=EDGE_CURVE('',#130,#128,#16,.T.);
#160=EDGE_CURVE('',#129,#130,#78,.T.);
#161=EDGE_CURVE('',#131,#129,#79,.T.);
#162=EDGE_CURVE('',#132,#130,#80,.T.);
#163=EDGE_CURVE('',#131,#132,#81,.T.);
#164=EDGE_CURVE('',#126,#131,#17,.T.);
#165=EDGE_CURVE('',#127,#132,#18,.T.);
#166=ORIENTED_EDGE('',*,*,#133,.T.);
#167=ORIENTED_EDGE('',*,*,#134,.T.);
#168=ORIENTED_EDGE('',*,*,#135,.F.);
#169=ORIENTED_EDGE('',*,*,#136,.F.);
#170=ORIENTED_EDGE('',*,*,#137,.T.);
#171=ORIENTED_EDGE('',*,*,#136,.T.);
#172=ORIENTED_EDGE('',*,*,#138,.F.);
#173=ORIENTED_EDGE('',*,*,#139,.F.);
#174=ORIENTED_EDGE('',*,*,#140,.T.);
#175=ORIENTED_EDGE('',*,*,#139,.T.);
#176=ORIENTED_EDGE('',*,*,#141,.F.);
#177=ORIENTED_EDGE('',*,*,#142,.F.);
#178=ORIENTED_EDGE('',*,*,#143,.T.);
#179=ORIENTED_EDGE('',*,*,#142,.T.);
#180=ORIENTED_EDGE('',*,*,#144,.F.);
#181=ORIENTED_EDGE('',*,*,#145,.F.);
#182=ORIENTED_EDGE('',*,*,#146,.T.);
#183=ORIENTED_EDGE('',*,*,#145,.T.);
#184=ORIENTED_EDGE('',*,*,#147,.F.);
#185=ORIENTED_EDGE('',*,*,#148,.F.);
#186=ORIENTED_EDGE('',*,*,#149,.T.);
#187=ORIENTED_EDGE('',*,*,#148,.T.);
#188=ORIENTED_EDGE('',*,*,#150,.F.);
#189=ORIENTED_EDGE('',*,*,#151,.F.);
#190=ORIENTED_EDGE('',*,*,#152,.T.);
#191=ORIENTED_EDGE('',*,*,#151,.T.);
#192=ORIENTED_EDGE('',*,*,#153,.F.);
#193=ORIENTED_EDGE('',*,*,#134,.F.);
#194=ORIENTED_EDGE('',*,*,#153,.T.);
#195=ORIENTED_EDGE('',*,*,#150,.T.);
#196=ORIENTED_EDGE('',*,*,#147,.T.);
#197=ORIENTED_EDGE('',*,*,#144,.T.);
#198=ORIENTED_EDGE('',*,*,#141,.T.);
#199=ORIENTED_EDGE('',*,*,#138,.T.);
#200=ORIENTED_EDGE('',*,*,#135,.T.);
#201=ORIENTED_EDGE('',*,*,#152,.F.);
#202=ORIENTED_EDGE('',*,*,#133,.F.);
#203=ORIENTED_EDGE('',*,*,#137,.F.);
#204=ORIENTED_EDGE('',*,*,#140,.F.);
#205=ORIENTED_EDGE('',*,*,#143,.F.);
#206=ORIENTED_EDGE('',*,*,#146,.F.);
#207=ORIENTED_EDGE('',*,*,#149,.F.);
#208=ORIENTED_EDGE('',*,*,#154,.T.);
#209=ORIENTED_EDGE('',*,*,#155,.T.);
#210=ORIENTED_EDGE('',*,*,#156,.F.);
#211=ORIENTED_EDGE('',*,*,#157,.F.);
#212=ORIENTED_EDGE('',*,*,#158,.T.);
#213=ORIENTED_EDGE('',*,*,#157,.T.);
#214=ORIENTED_EDGE('',*,*,#159,.F.);
#215=ORIENTED_EDGE('',*,*,#160,.F.);
#216=ORIENTED_EDGE('',*,*,#161,.T.);
#217=ORIENTED_EDGE('',*,*,#160,.T.);
#218=ORIENTED_EDGE('',*,*,#162,.F.);
#219=ORIENTED_EDGE('',*,*,#163,.F.);
#220=ORIENTED_EDGE('',*,*,#164,.T.);
#221=ORIENTED_EDGE('',*,*,#163,.T.);
#222=ORIENTED_EDGE('',*,*,#165,.F.);
#223=ORIENTED_EDGE('',*,*,#155,.F.);
#224=ORIENTED_EDGE('',*,*,#165,.T.);
#225=ORIENTED_EDGE('',*,*,#162,.T.);
#226=ORIENTED_EDGE('',*,*,#159,.T.);
#227=ORIENTED_EDGE('',*,*,#156,.T.);
#228=ORIENTED_EDGE('',*,*,#164,.F.);
#229=ORIENTED_EDGE('',*,*,#154,.F.);
#230=ORIENTED_EDGE('',*,*,#158,.F.);
#231=ORIENTED_EDGE('',*,*,#161,.F.);
#232=PLANE('',#275);
#233=PLANE('',#276);
#234=PLANE('',#277);
#235=PLANE('',#278);
#236=PLANE('',#279);
#237=PLANE('',#280);
#238=PLANE('',#281);
#239=PLANE('',#282);
#240=PLANE('',#283);
#241=PLANE('',#284);
#242=PLANE('',#288);
#243=PLANE('',#292);
#244=PLANE('',#293);
#245=ADVANCED_FACE('',(#23),#232,.T.);
#246=ADVANCED_FACE('',(#24),#233,.T.);
#247=ADVANCED_FACE('',(#25),#234,.T.);
#248=ADVANCED_FACE('',(#26),#235,.T.);
#249=ADVANCED_FACE('',(#27),#236,.T.);
#250=ADVANCED_FACE('',(#28),#237,.T.);
#251=ADVANCED_FACE('',(#29),#238,.T.);
#252=ADVANCED_FACE('',(#30),#239,.T.);
#253=ADVANCED_FACE('',(#31),#240,.F.);
#254=ADVANCED_FACE('',(#32),#241,.T.);
#255=ADVANCED_FACE('',(#33),#19,.F.);
#256=ADVANCED_FACE('',(#34),#242,.T.);
#257=ADVANCED_FACE('',(#35),#20,.T.);
#258=ADVANCED_FACE('',(#36),#243,.T.);
#259=ADVANCED_FACE('',(#37),#244,.F.);
#260=CLOSED_SHELL('',(#245,#246,#247,#248,#249,#250,#251,#252,#253));
#261=CLOSED_SHELL('',(#254,#255,#256,#257,#258,#259));
#262=DERIVED_UNIT_ELEMENT(#264,1.);
#263=DERIVED_UNIT_ELEMENT(#439,3.);
#264=(
MASS_UNIT()
NAMED_UNIT(*)
SI_UNIT($,.GRAM.)
);
#265=DERIVED_UNIT((#262,#263));
#266=MEASURE_REPRESENTATION_ITEM('density measure',
POSITIVE_RATIO_MEASURE(1.),#265);
#267=PROPERTY_DEFINITION_REPRESENTATION(#272,#269);
#268=PROPERTY_DEFINITION_REPRESENTATION(#273,#270);
#269=REPRESENTATION('material name',(#271),#436);
#270=REPRESENTATION('density',(#266),#436);
#271=DESCRIPTIVE_REPRESENTATION_ITEM('Generisch','Generisch');
#272=PROPERTY_DEFINITION('material property','material name',#446);
#273=PROPERTY_DEFINITION('material property','density of part',#446);
#274=AXIS2_PLACEMENT_3D('placement',#363,#294,#295);
#275=AXIS2_PLACEMENT_3D('',#364,#296,#297);
#276=AXIS2_PLACEMENT_3D('',#373,#302,#303);
#277=AXIS2_PLACEMENT_3D('',#379,#307,#308);
#278=AXIS2_PLACEMENT_3D('',#385,#312,#313);
#279=AXIS2_PLACEMENT_3D('',#391,#317,#318);
#280=AXIS2_PLACEMENT_3D('',#397,#322,#323);
#281=AXIS2_PLACEMENT_3D('',#403,#327,#328);
#282=AXIS2_PLACEMENT_3D('',#406,#331,#332);
#283=AXIS2_PLACEMENT_3D('',#407,#333,#334);
#284=AXIS2_PLACEMENT_3D('',#408,#335,#336);
#285=AXIS2_PLACEMENT_3D('',#417,#341,#342);
#286=AXIS2_PLACEMENT_3D('',#419,#343,#344);
#287=AXIS2_PLACEMENT_3D('',#421,#345,#346);
#288=AXIS2_PLACEMENT_3D('',#423,#348,#349);
#289=AXIS2_PLACEMENT_3D('',#429,#353,#354);
#290=AXIS2_PLACEMENT_3D('',#430,#355,#356);
#291=AXIS2_PLACEMENT_3D('',#431,#357,#358);
#292=AXIS2_PLACEMENT_3D('',#432,#359,#360);
#293=AXIS2_PLACEMENT_3D('',#433,#361,#362);
#294=DIRECTION('axis',(0.,0.,1.));
#295=DIRECTION('refdir',(1.,0.,0.));
#296=DIRECTION('center_axis',(4.28626379701574E-16,-1.,0.));
#297=DIRECTION('ref_axis',(1.,4.28626379701574E-16,0.));
#298=DIRECTION('',(1.,4.28626379701574E-16,0.));
#299=DIRECTION('',(0.,0.,1.));
#300=DIRECTION('',(1.,4.28626379701574E-16,0.));
#301=DIRECTION('',(0.,0.,1.));
#302=DIRECTION('center_axis',(-1.,-2.31111593326468E-32,0.));
#303=DIRECTION('ref_axis',(2.31111593326468E-32,-1.,0.));
#304=DIRECTION('',(2.31111593326468E-32,-1.,0.));
#305=DIRECTION('',(2.31111593326468E-32,-1.,0.));
#306=DIRECTION('',(0.,0.,1.));
#307=DIRECTION('center_axis',(0.,1.,0.));
#308=DIRECTION('ref_axis',(-1.,0.,0.));
#309=DIRECTION('',(-1.,0.,0.));
#310=DIRECTION('',(-1.,0.,0.));
#311=DIRECTION('',(0.,0.,1.));
#312=DIRECTION('center_axis',(1.,5.87002489999348E-17,0.));
#313=DIRECTION('ref_axis',(-5.87002489999348E-17,1.,0.));
#314=DIRECTION('',(-5.87002489999348E-17,1.,0.));
#315=DIRECTION('',(-5.87002489999348E-17,1.,0.));
#316=DIRECTION('',(0.,0.,1.));
#317=DIRECTION('center_axis',(0.707106781186548,0.707106781186547,0.));
#318=DIRECTION('ref_axis',(-0.707106781186547,0.707106781186548,0.));
#319=DIRECTION('',(-0.707106781186547,0.707106781186548,0.));
#320=DIRECTION('',(-0.707106781186547,0.707106781186548,0.));
#321=DIRECTION('',(0.,0.,1.));
#322=DIRECTION('center_axis',(-1.19357172966534E-15,1.,0.));
#323=DIRECTION('ref_axis',(-1.,-1.19357172966534E-15,0.));
#324=DIRECTION('',(-1.,-1.19357172966534E-15,0.));
#325=DIRECTION('',(-1.,-1.19357172966534E-15,0.));
#326=DIRECTION('',(0.,0.,1.));
#327=DIRECTION('center_axis',(1.,0.,0.));
#328=DIRECTION('ref_axis',(0.,1.,0.));
#329=DIRECTION('',(0.,1.,0.));
#330=DIRECTION('',(0.,1.,0.));
#331=DIRECTION('center_axis',(0.,0.,1.));
#332=DIRECTION('ref_axis',(1.,0.,0.));
#333=DIRECTION('center_axis',(0.,0.,1.));
#334=DIRECTION('ref_axis',(1.,0.,0.));
#335=DIRECTION('center_axis',(0.,-1.,0.));
#336=DIRECTION('ref_axis',(1.,0.,0.));
#337=DIRECTION('',(1.,0.,0.));
#338=DIRECTION('',(0.,0.,1.));
#339=DIRECTION('',(1.,0.,0.));
#340=DIRECTION('',(0.,0.,1.));
#341=DIRECTION('center_axis',(0.,0.,1.));
#342=DIRECTION('ref_axis',(-0.999894974531034,-0.0144927536231892,0.));
#343=DIRECTION('center_axis',(0.,0.,-1.));
#344=DIRECTION('ref_axis',(-0.999894974531034,-0.0144927536231892,0.));
#345=DIRECTION('center_axis',(0.,0.,-1.));
#346=DIRECTION('ref_axis',(-0.999894974531034,-0.0144927536231892,0.));
#347=DIRECTION('',(0.,0.,1.));
#348=DIRECTION('center_axis',(-1.,0.,0.));
#349=DIRECTION('ref_axis',(0.,-1.,0.));
#350=DIRECTION('',(0.,-1.,0.));
#351=DIRECTION('',(0.,-1.,0.));
#352=DIRECTION('',(0.,0.,1.));
#353=DIRECTION('center_axis',(0.,0.,1.));
#354=DIRECTION('ref_axis',(0.999908688307347,0.0135135135135142,0.));
#355=DIRECTION('center_axis',(0.,0.,1.));
#356=DIRECTION('ref_axis',(0.999908688307347,0.0135135135135142,0.));
#357=DIRECTION('center_axis',(0.,0.,1.));
#358=DIRECTION('ref_axis',(0.999908688307347,0.0135135135135142,0.));
#359=DIRECTION('center_axis',(0.,0.,1.));
#360=DIRECTION('ref_axis',(1.,0.,0.));
#361=DIRECTION('center_axis',(0.,0.,1.));
#362=DIRECTION('ref_axis',(1.,0.,0.));
#363=CARTESIAN_POINT('',(0.,0.,0.));
#364=CARTESIAN_POINT('Origin',(0.,0.,0.));
#365=CARTESIAN_POINT('',(0.,0.,0.));
#366=CARTESIAN_POINT('',(16.,6.85802207522518E-15,0.));
#367=CARTESIAN_POINT('',(0.,0.,0.));
#368=CARTESIAN_POINT('',(16.,6.85802207522518E-15,1000.));
#369=CARTESIAN_POINT('',(16.,6.85802207522518E-15,0.));
#370=CARTESIAN_POINT('',(0.,0.,1000.));
#371=CARTESIAN_POINT('',(0.,0.,1000.));
#372=CARTESIAN_POINT('',(0.,0.,0.));
#373=CARTESIAN_POINT('Origin',(-3.69778549322349E-31,16.,0.));
#374=CARTESIAN_POINT('',(-3.69778549322349E-31,16.,0.));
#375=CARTESIAN_POINT('',(-3.69778549322349E-31,16.,0.));
#376=CARTESIAN_POINT('',(0.,16.,1000.));
#377=CARTESIAN_POINT('',(-3.69778549322349E-31,16.,1000.));
#378=CARTESIAN_POINT('',(-3.69778549322349E-31,16.,0.));
#379=CARTESIAN_POINT('Origin',(1.2,16.,0.));
#380=CARTESIAN_POINT('',(1.2,16.,0.));
#381=CARTESIAN_POINT('',(1.2,16.,0.));
#382=CARTESIAN_POINT('',(1.2,16.,1000.));
#383=CARTESIAN_POINT('',(1.2,16.,1000.));
#384=CARTESIAN_POINT('',(1.2,16.,0.));
#385=CARTESIAN_POINT('Origin',(1.2,8.90746391493337,0.));
#386=CARTESIAN_POINT('',(1.2,8.90746391493337,0.));
#387=CARTESIAN_POINT('',(1.2,8.90746391493337,0.));
#388=CARTESIAN_POINT('',(1.2,8.90746391493337,1000.));
#389=CARTESIAN_POINT('',(1.2,8.90746391493337,1000.));
#390=CARTESIAN_POINT('',(1.2,8.90746391493337,0.));
#391=CARTESIAN_POINT('Origin',(8.90746391493337,1.2,0.));
#392=CARTESIAN_POINT('',(8.90746391493337,1.2,0.));
#393=CARTESIAN_POINT('',(8.90746391493337,1.2,0.));
#394=CARTESIAN_POINT('',(8.90746391493337,1.2,1000.));
#395=CARTESIAN_POINT('',(8.90746391493337,1.2,1000.));
#396=CARTESIAN_POINT('',(8.90746391493337,1.2,0.));
#397=CARTESIAN_POINT('Origin',(16.,1.20000000000001,0.));
#398=CARTESIAN_POINT('',(16.,1.20000000000001,0.));
#399=CARTESIAN_POINT('',(16.,1.20000000000001,0.));
#400=CARTESIAN_POINT('',(16.,1.20000000000001,1000.));
#401=CARTESIAN_POINT('',(16.,1.20000000000001,1000.));
#402=CARTESIAN_POINT('',(16.,1.20000000000001,0.));
#403=CARTESIAN_POINT('Origin',(16.,6.85802207522518E-15,0.));
#404=CARTESIAN_POINT('',(16.,6.80011602582908E-15,0.));
#405=CARTESIAN_POINT('',(16.,6.80011602582908E-15,1000.));
#406=CARTESIAN_POINT('Origin',(8.,8.,1000.));
#407=CARTESIAN_POINT('Origin',(8.,8.,0.));
#408=CARTESIAN_POINT('Origin',(14.9985506485283,1.4,0.));
#409=CARTESIAN_POINT('',(14.9985506485283,1.4,0.));
#410=CARTESIAN_POINT('',(15.9986485869487,1.4,0.));
#411=CARTESIAN_POINT('',(14.9985506485283,1.4,0.));
#412=CARTESIAN_POINT('',(15.9986485869487,1.4,1000.));
#413=CARTESIAN_POINT('',(15.9986485869487,1.4,0.));
#414=CARTESIAN_POINT('',(14.9985506485283,1.4,1000.));
#415=CARTESIAN_POINT('',(14.9985506485283,1.4,1000.));
#416=CARTESIAN_POINT('',(14.9985506485283,1.4,0.));
#417=CARTESIAN_POINT('Origin',(1.2,1.19999999999999,0.));
#418=CARTESIAN_POINT('',(1.4,14.9985506485283,0.));
#419=CARTESIAN_POINT('Origin',(1.2,1.19999999999999,0.));
#420=CARTESIAN_POINT('',(1.40000000000001,14.9985506485283,1000.));
#421=CARTESIAN_POINT('Origin',(1.2,1.19999999999999,1000.));
#422=CARTESIAN_POINT('',(1.4,14.9985506485283,0.));
#423=CARTESIAN_POINT('Origin',(1.4,15.9986485869487,0.));
#424=CARTESIAN_POINT('',(1.4,15.9986485869487,0.));
#425=CARTESIAN_POINT('',(1.4,15.9986485869487,0.));
#426=CARTESIAN_POINT('',(1.40000000000001,15.9986485869487,1000.));
#427=CARTESIAN_POINT('',(1.4,15.9986485869487,1000.));
#428=CARTESIAN_POINT('',(1.4,15.9986485869487,0.));
#429=CARTESIAN_POINT('Origin',(1.2,1.19999999999999,0.));
#430=CARTESIAN_POINT('Origin',(1.2,1.19999999999999,0.));
#431=CARTESIAN_POINT('Origin',(1.2,1.19999999999999,1000.));
#432=CARTESIAN_POINT('Origin',(8.69932429347437,8.69932429347437,1000.));
#433=CARTESIAN_POINT('Origin',(8.69932429347437,8.69932429347437,0.));
#434=UNCERTAINTY_MEASURE_WITH_UNIT(LENGTH_MEASURE(0.01),#438,
'DISTANCE_ACCURACY_VALUE',
'Maximum model space distance between geometric entities at asserted c
onnectivities');
#435=UNCERTAINTY_MEASURE_WITH_UNIT(LENGTH_MEASURE(0.01),#438,
'DISTANCE_ACCURACY_VALUE',
'Maximum model space distance between geometric entities at asserted c
onnectivities');
#436=(
GEOMETRIC_REPRESENTATION_CONTEXT(3)
GLOBAL_UNCERTAINTY_ASSIGNED_CONTEXT((#434))
GLOBAL_UNIT_ASSIGNED_CONTEXT((#438,#440,#441))
REPRESENTATION_CONTEXT('','3D')
);
#437=(
GEOMETRIC_REPRESENTATION_CONTEXT(3)
GLOBAL_UNCERTAINTY_ASSIGNED_CONTEXT((#435))
GLOBAL_UNIT_ASSIGNED_CONTEXT((#438,#440,#441))
REPRESENTATION_CONTEXT('','3D')
);
#438=(
LENGTH_UNIT()
NAMED_UNIT(*)
SI_UNIT(.MILLI.,.METRE.)
);
#439=(
LENGTH_UNIT()
NAMED_UNIT(*)
SI_UNIT(.CENTI.,.METRE.)
);
#440=(
NAMED_UNIT(*)
PLANE_ANGLE_UNIT()
SI_UNIT($,.RADIAN.)
);
#441=(
NAMED_UNIT(*)
SI_UNIT($,.STERADIAN.)
SOLID_ANGLE_UNIT()
);
#442=SHAPE_DEFINITION_REPRESENTATION(#443,#444);
#443=PRODUCT_DEFINITION_SHAPE('',$,#446);
#444=SHAPE_REPRESENTATION('',(#274),#436);
#445=PRODUCT_DEFINITION_CONTEXT('part definition',#450,'design');
#446=PRODUCT_DEFINITION('UNE-027','Corner_16',#447,#445);
#447=PRODUCT_DEFINITION_FORMATION('',$,#452);
#448=PRODUCT_RELATED_PRODUCT_CATEGORY('Corner_16','Corner_16',(#452));
#449=APPLICATION_PROTOCOL_DEFINITION('international standard',
'automotive_design',2009,#450);
#450=APPLICATION_CONTEXT(
'Core Data for Automotive Mechanical Design Process');
#451=PRODUCT_CONTEXT('part definition',#450,'mechanical');
#452=PRODUCT('UNE-027','Corner_16',$,(#451));
#453=PRESENTATION_STYLE_ASSIGNMENT((#454));
#454=SURFACE_STYLE_USAGE(.BOTH.,#457);
#455=SURFACE_STYLE_RENDERING_WITH_PROPERTIES($,#461,(#456));
#456=SURFACE_STYLE_TRANSPARENT(0.);
#457=SURFACE_SIDE_STYLE('',(#458,#455));
#458=SURFACE_STYLE_FILL_AREA(#459);
#459=FILL_AREA_STYLE('',(#460));
#460=FILL_AREA_STYLE_COLOUR('',#461);
#461=COLOUR_RGB('',0.749019607843137,0.749019607843137,0.749019607843137);
ENDSEC;
END-ISO-10303-21;
