ISO-10303-21;
HEADER;
/* Generated by software containing ST-Developer
 * from STEP Tools, Inc. (www.steptools.com) 
 */

FILE_DESCRIPTION(
/* description */ (''),
/* implementation_level */ '2;1');

FILE_NAME(
/* name */ 
'P:\\Projekte\\PP1292 Unex Dakota LED Profile\\22-Zeichnungen St\X\FCc
klisten\\Anwender_3D-Daten\\3D_Edge_30.stp',
/* time_stamp */ '2021-03-22T15:37:40+01:00',
/* author */ ('sstotter'),
/* organization */ (''),
/* preprocessor_version */ 'ST-DEVELOPER v18.1',
/* originating_system */ 'Autodesk Inventor 2021',
/* authorisation */ '');

FILE_SCHEMA (('AUTOMOTIVE_DESIGN { 1 0 10303 214 3 1 1 }'));
ENDSEC;

DATA;
#10=MECHANICAL_DESIGN_GEOMETRIC_PRESENTATION_REPRESENTATION('',(#13,#14),
#600);
#11=SHAPE_REPRESENTATION_RELATIONSHIP('SRR','None',#607,#12);
#12=ADVANCED_BREP_SHAPE_REPRESENTATION('',(#18,#19),#599);
#13=STYLED_ITEM('',(#616),#18);
#14=STYLED_ITEM('',(#616),#19);
#15=CIRCLE('',#398,6.3075);
#16=CIRCLE('',#399,6.3075);
#17=CYLINDRICAL_SURFACE('',#397,6.3075);
#18=MANIFOLD_SOLID_BREP('Volumenk\X\F6rper1',#367);
#19=MANIFOLD_SOLID_BREP('Volumenk\X\F6rper1',#368);
#20=FACE_OUTER_BOUND('',#40,.T.);
#21=FACE_OUTER_BOUND('',#41,.T.);
#22=FACE_OUTER_BOUND('',#42,.T.);
#23=FACE_OUTER_BOUND('',#43,.T.);
#24=FACE_OUTER_BOUND('',#44,.T.);
#25=FACE_OUTER_BOUND('',#45,.T.);
#26=FACE_OUTER_BOUND('',#46,.T.);
#27=FACE_OUTER_BOUND('',#47,.T.);
#28=FACE_OUTER_BOUND('',#48,.T.);
#29=FACE_OUTER_BOUND('',#49,.T.);
#30=FACE_OUTER_BOUND('',#50,.T.);
#31=FACE_OUTER_BOUND('',#51,.T.);
#32=FACE_OUTER_BOUND('',#52,.T.);
#33=FACE_OUTER_BOUND('',#53,.T.);
#34=FACE_OUTER_BOUND('',#54,.T.);
#35=FACE_OUTER_BOUND('',#55,.T.);
#36=FACE_OUTER_BOUND('',#56,.T.);
#37=FACE_OUTER_BOUND('',#57,.T.);
#38=FACE_OUTER_BOUND('',#58,.T.);
#39=FACE_OUTER_BOUND('',#59,.T.);
#40=EDGE_LOOP('',(#232,#233,#234,#235));
#41=EDGE_LOOP('',(#236,#237,#238,#239));
#42=EDGE_LOOP('',(#240,#241,#242,#243));
#43=EDGE_LOOP('',(#244,#245,#246,#247));
#44=EDGE_LOOP('',(#248,#249,#250,#251));
#45=EDGE_LOOP('',(#252,#253,#254,#255));
#46=EDGE_LOOP('',(#256,#257,#258,#259));
#47=EDGE_LOOP('',(#260,#261,#262,#263));
#48=EDGE_LOOP('',(#264,#265,#266,#267));
#49=EDGE_LOOP('',(#268,#269,#270,#271));
#50=EDGE_LOOP('',(#272,#273,#274,#275));
#51=EDGE_LOOP('',(#276,#277,#278,#279));
#52=EDGE_LOOP('',(#280,#281,#282,#283,#284,#285,#286,#287,#288,#289,#290,
#291));
#53=EDGE_LOOP('',(#292,#293,#294,#295,#296,#297,#298,#299,#300,#301,#302,
#303));
#54=EDGE_LOOP('',(#304,#305,#306,#307));
#55=EDGE_LOOP('',(#308,#309,#310,#311));
#56=EDGE_LOOP('',(#312,#313,#314,#315));
#57=EDGE_LOOP('',(#316,#317,#318,#319));
#58=EDGE_LOOP('',(#320,#321,#322,#323));
#59=EDGE_LOOP('',(#324,#325,#326,#327));
#60=LINE('',#500,#106);
#61=LINE('',#502,#107);
#62=LINE('',#504,#108);
#63=LINE('',#505,#109);
#64=LINE('',#508,#110);
#65=LINE('',#510,#111);
#66=LINE('',#511,#112);
#67=LINE('',#514,#113);
#68=LINE('',#516,#114);
#69=LINE('',#517,#115);
#70=LINE('',#520,#116);
#71=LINE('',#522,#117);
#72=LINE('',#523,#118);
#73=LINE('',#526,#119);
#74=LINE('',#528,#120);
#75=LINE('',#529,#121);
#76=LINE('',#532,#122);
#77=LINE('',#534,#123);
#78=LINE('',#535,#124);
#79=LINE('',#538,#125);
#80=LINE('',#540,#126);
#81=LINE('',#541,#127);
#82=LINE('',#544,#128);
#83=LINE('',#546,#129);
#84=LINE('',#547,#130);
#85=LINE('',#550,#131);
#86=LINE('',#552,#132);
#87=LINE('',#553,#133);
#88=LINE('',#556,#134);
#89=LINE('',#558,#135);
#90=LINE('',#559,#136);
#91=LINE('',#562,#137);
#92=LINE('',#564,#138);
#93=LINE('',#565,#139);
#94=LINE('',#567,#140);
#95=LINE('',#568,#141);
#96=LINE('',#574,#142);
#97=LINE('',#576,#143);
#98=LINE('',#578,#144);
#99=LINE('',#579,#145);
#100=LINE('',#584,#146);
#101=LINE('',#588,#147);
#102=LINE('',#590,#148);
#103=LINE('',#591,#149);
#104=LINE('',#593,#150);
#105=LINE('',#594,#151);
#106=VECTOR('',#408,10.);
#107=VECTOR('',#409,10.);
#108=VECTOR('',#410,10.);
#109=VECTOR('',#411,10.);
#110=VECTOR('',#414,10.);
#111=VECTOR('',#415,10.);
#112=VECTOR('',#416,10.);
#113=VECTOR('',#419,10.);
#114=VECTOR('',#420,10.);
#115=VECTOR('',#421,10.);
#116=VECTOR('',#424,10.);
#117=VECTOR('',#425,10.);
#118=VECTOR('',#426,10.);
#119=VECTOR('',#429,10.);
#120=VECTOR('',#430,10.);
#121=VECTOR('',#431,10.);
#122=VECTOR('',#434,10.);
#123=VECTOR('',#435,10.);
#124=VECTOR('',#436,10.);
#125=VECTOR('',#439,10.);
#126=VECTOR('',#440,10.);
#127=VECTOR('',#441,10.);
#128=VECTOR('',#444,10.);
#129=VECTOR('',#445,10.);
#130=VECTOR('',#446,10.);
#131=VECTOR('',#449,10.);
#132=VECTOR('',#450,10.);
#133=VECTOR('',#451,10.);
#134=VECTOR('',#454,10.);
#135=VECTOR('',#455,10.);
#136=VECTOR('',#456,10.);
#137=VECTOR('',#459,10.);
#138=VECTOR('',#460,10.);
#139=VECTOR('',#461,10.);
#140=VECTOR('',#464,10.);
#141=VECTOR('',#465,10.);
#142=VECTOR('',#472,10.);
#143=VECTOR('',#473,10.);
#144=VECTOR('',#474,10.);
#145=VECTOR('',#475,10.);
#146=VECTOR('',#480,10.);
#147=VECTOR('',#485,10.);
#148=VECTOR('',#486,10.);
#149=VECTOR('',#487,10.);
#150=VECTOR('',#490,10.);
#151=VECTOR('',#491,10.);
#152=VERTEX_POINT('',#498);
#153=VERTEX_POINT('',#499);
#154=VERTEX_POINT('',#501);
#155=VERTEX_POINT('',#503);
#156=VERTEX_POINT('',#507);
#157=VERTEX_POINT('',#509);
#158=VERTEX_POINT('',#513);
#159=VERTEX_POINT('',#515);
#160=VERTEX_POINT('',#519);
#161=VERTEX_POINT('',#521);
#162=VERTEX_POINT('',#525);
#163=VERTEX_POINT('',#527);
#164=VERTEX_POINT('',#531);
#165=VERTEX_POINT('',#533);
#166=VERTEX_POINT('',#537);
#167=VERTEX_POINT('',#539);
#168=VERTEX_POINT('',#543);
#169=VERTEX_POINT('',#545);
#170=VERTEX_POINT('',#549);
#171=VERTEX_POINT('',#551);
#172=VERTEX_POINT('',#555);
#173=VERTEX_POINT('',#557);
#174=VERTEX_POINT('',#561);
#175=VERTEX_POINT('',#563);
#176=VERTEX_POINT('',#572);
#177=VERTEX_POINT('',#573);
#178=VERTEX_POINT('',#575);
#179=VERTEX_POINT('',#577);
#180=VERTEX_POINT('',#581);
#181=VERTEX_POINT('',#583);
#182=VERTEX_POINT('',#587);
#183=VERTEX_POINT('',#589);
#184=EDGE_CURVE('',#152,#153,#60,.T.);
#185=EDGE_CURVE('',#152,#154,#61,.T.);
#186=EDGE_CURVE('',#154,#155,#62,.T.);
#187=EDGE_CURVE('',#153,#155,#63,.T.);
#188=EDGE_CURVE('',#156,#152,#64,.T.);
#189=EDGE_CURVE('',#156,#157,#65,.T.);
#190=EDGE_CURVE('',#157,#154,#66,.T.);
#191=EDGE_CURVE('',#158,#156,#67,.T.);
#192=EDGE_CURVE('',#158,#159,#68,.T.);
#193=EDGE_CURVE('',#159,#157,#69,.T.);
#194=EDGE_CURVE('',#160,#158,#70,.T.);
#195=EDGE_CURVE('',#160,#161,#71,.T.);
#196=EDGE_CURVE('',#161,#159,#72,.T.);
#197=EDGE_CURVE('',#162,#160,#73,.T.);
#198=EDGE_CURVE('',#162,#163,#74,.T.);
#199=EDGE_CURVE('',#163,#161,#75,.T.);
#200=EDGE_CURVE('',#164,#153,#76,.T.);
#201=EDGE_CURVE('',#165,#155,#77,.T.);
#202=EDGE_CURVE('',#164,#165,#78,.T.);
#203=EDGE_CURVE('',#166,#164,#79,.T.);
#204=EDGE_CURVE('',#167,#165,#80,.T.);
#205=EDGE_CURVE('',#166,#167,#81,.T.);
#206=EDGE_CURVE('',#168,#166,#82,.T.);
#207=EDGE_CURVE('',#169,#167,#83,.T.);
#208=EDGE_CURVE('',#168,#169,#84,.T.);
#209=EDGE_CURVE('',#170,#168,#85,.T.);
#210=EDGE_CURVE('',#171,#169,#86,.T.);
#211=EDGE_CURVE('',#170,#171,#87,.T.);
#212=EDGE_CURVE('',#172,#170,#88,.T.);
#213=EDGE_CURVE('',#173,#171,#89,.T.);
#214=EDGE_CURVE('',#172,#173,#90,.T.);
#215=EDGE_CURVE('',#174,#172,#91,.T.);
#216=EDGE_CURVE('',#175,#173,#92,.T.);
#217=EDGE_CURVE('',#174,#175,#93,.T.);
#218=EDGE_CURVE('',#162,#174,#94,.T.);
#219=EDGE_CURVE('',#175,#163,#95,.T.);
#220=EDGE_CURVE('',#176,#177,#96,.T.);
#221=EDGE_CURVE('',#176,#178,#97,.T.);
#222=EDGE_CURVE('',#178,#179,#98,.T.);
#223=EDGE_CURVE('',#177,#179,#99,.T.);
#224=EDGE_CURVE('',#180,#176,#15,.T.);
#225=EDGE_CURVE('',#180,#181,#100,.T.);
#226=EDGE_CURVE('',#181,#178,#16,.T.);
#227=EDGE_CURVE('',#182,#177,#101,.T.);
#228=EDGE_CURVE('',#183,#179,#102,.T.);
#229=EDGE_CURVE('',#182,#183,#103,.T.);
#230=EDGE_CURVE('',#180,#182,#104,.T.);
#231=EDGE_CURVE('',#181,#183,#105,.T.);
#232=ORIENTED_EDGE('',*,*,#184,.F.);
#233=ORIENTED_EDGE('',*,*,#185,.T.);
#234=ORIENTED_EDGE('',*,*,#186,.T.);
#235=ORIENTED_EDGE('',*,*,#187,.F.);
#236=ORIENTED_EDGE('',*,*,#188,.F.);
#237=ORIENTED_EDGE('',*,*,#189,.T.);
#238=ORIENTED_EDGE('',*,*,#190,.T.);
#239=ORIENTED_EDGE('',*,*,#185,.F.);
#240=ORIENTED_EDGE('',*,*,#191,.F.);
#241=ORIENTED_EDGE('',*,*,#192,.T.);
#242=ORIENTED_EDGE('',*,*,#193,.T.);
#243=ORIENTED_EDGE('',*,*,#189,.F.);
#244=ORIENTED_EDGE('',*,*,#194,.F.);
#245=ORIENTED_EDGE('',*,*,#195,.T.);
#246=ORIENTED_EDGE('',*,*,#196,.T.);
#247=ORIENTED_EDGE('',*,*,#192,.F.);
#248=ORIENTED_EDGE('',*,*,#197,.F.);
#249=ORIENTED_EDGE('',*,*,#198,.T.);
#250=ORIENTED_EDGE('',*,*,#199,.T.);
#251=ORIENTED_EDGE('',*,*,#195,.F.);
#252=ORIENTED_EDGE('',*,*,#200,.T.);
#253=ORIENTED_EDGE('',*,*,#187,.T.);
#254=ORIENTED_EDGE('',*,*,#201,.F.);
#255=ORIENTED_EDGE('',*,*,#202,.F.);
#256=ORIENTED_EDGE('',*,*,#203,.T.);
#257=ORIENTED_EDGE('',*,*,#202,.T.);
#258=ORIENTED_EDGE('',*,*,#204,.F.);
#259=ORIENTED_EDGE('',*,*,#205,.F.);
#260=ORIENTED_EDGE('',*,*,#206,.T.);
#261=ORIENTED_EDGE('',*,*,#205,.T.);
#262=ORIENTED_EDGE('',*,*,#207,.F.);
#263=ORIENTED_EDGE('',*,*,#208,.F.);
#264=ORIENTED_EDGE('',*,*,#209,.T.);
#265=ORIENTED_EDGE('',*,*,#208,.T.);
#266=ORIENTED_EDGE('',*,*,#210,.F.);
#267=ORIENTED_EDGE('',*,*,#211,.F.);
#268=ORIENTED_EDGE('',*,*,#212,.T.);
#269=ORIENTED_EDGE('',*,*,#211,.T.);
#270=ORIENTED_EDGE('',*,*,#213,.F.);
#271=ORIENTED_EDGE('',*,*,#214,.F.);
#272=ORIENTED_EDGE('',*,*,#215,.T.);
#273=ORIENTED_EDGE('',*,*,#214,.T.);
#274=ORIENTED_EDGE('',*,*,#216,.F.);
#275=ORIENTED_EDGE('',*,*,#217,.F.);
#276=ORIENTED_EDGE('',*,*,#218,.T.);
#277=ORIENTED_EDGE('',*,*,#217,.T.);
#278=ORIENTED_EDGE('',*,*,#219,.T.);
#279=ORIENTED_EDGE('',*,*,#198,.F.);
#280=ORIENTED_EDGE('',*,*,#219,.F.);
#281=ORIENTED_EDGE('',*,*,#216,.T.);
#282=ORIENTED_EDGE('',*,*,#213,.T.);
#283=ORIENTED_EDGE('',*,*,#210,.T.);
#284=ORIENTED_EDGE('',*,*,#207,.T.);
#285=ORIENTED_EDGE('',*,*,#204,.T.);
#286=ORIENTED_EDGE('',*,*,#201,.T.);
#287=ORIENTED_EDGE('',*,*,#186,.F.);
#288=ORIENTED_EDGE('',*,*,#190,.F.);
#289=ORIENTED_EDGE('',*,*,#193,.F.);
#290=ORIENTED_EDGE('',*,*,#196,.F.);
#291=ORIENTED_EDGE('',*,*,#199,.F.);
#292=ORIENTED_EDGE('',*,*,#218,.F.);
#293=ORIENTED_EDGE('',*,*,#197,.T.);
#294=ORIENTED_EDGE('',*,*,#194,.T.);
#295=ORIENTED_EDGE('',*,*,#191,.T.);
#296=ORIENTED_EDGE('',*,*,#188,.T.);
#297=ORIENTED_EDGE('',*,*,#184,.T.);
#298=ORIENTED_EDGE('',*,*,#200,.F.);
#299=ORIENTED_EDGE('',*,*,#203,.F.);
#300=ORIENTED_EDGE('',*,*,#206,.F.);
#301=ORIENTED_EDGE('',*,*,#209,.F.);
#302=ORIENTED_EDGE('',*,*,#212,.F.);
#303=ORIENTED_EDGE('',*,*,#215,.F.);
#304=ORIENTED_EDGE('',*,*,#220,.F.);
#305=ORIENTED_EDGE('',*,*,#221,.T.);
#306=ORIENTED_EDGE('',*,*,#222,.T.);
#307=ORIENTED_EDGE('',*,*,#223,.F.);
#308=ORIENTED_EDGE('',*,*,#224,.F.);
#309=ORIENTED_EDGE('',*,*,#225,.T.);
#310=ORIENTED_EDGE('',*,*,#226,.T.);
#311=ORIENTED_EDGE('',*,*,#221,.F.);
#312=ORIENTED_EDGE('',*,*,#227,.T.);
#313=ORIENTED_EDGE('',*,*,#223,.T.);
#314=ORIENTED_EDGE('',*,*,#228,.F.);
#315=ORIENTED_EDGE('',*,*,#229,.F.);
#316=ORIENTED_EDGE('',*,*,#230,.T.);
#317=ORIENTED_EDGE('',*,*,#229,.T.);
#318=ORIENTED_EDGE('',*,*,#231,.F.);
#319=ORIENTED_EDGE('',*,*,#225,.F.);
#320=ORIENTED_EDGE('',*,*,#231,.T.);
#321=ORIENTED_EDGE('',*,*,#228,.T.);
#322=ORIENTED_EDGE('',*,*,#222,.F.);
#323=ORIENTED_EDGE('',*,*,#226,.F.);
#324=ORIENTED_EDGE('',*,*,#230,.F.);
#325=ORIENTED_EDGE('',*,*,#224,.T.);
#326=ORIENTED_EDGE('',*,*,#220,.T.);
#327=ORIENTED_EDGE('',*,*,#227,.F.);
#328=PLANE('',#382);
#329=PLANE('',#383);
#330=PLANE('',#384);
#331=PLANE('',#385);
#332=PLANE('',#386);
#333=PLANE('',#387);
#334=PLANE('',#388);
#335=PLANE('',#389);
#336=PLANE('',#390);
#337=PLANE('',#391);
#338=PLANE('',#392);
#339=PLANE('',#393);
#340=PLANE('',#394);
#341=PLANE('',#395);
#342=PLANE('',#396);
#343=PLANE('',#400);
#344=PLANE('',#401);
#345=PLANE('',#402);
#346=PLANE('',#403);
#347=ADVANCED_FACE('',(#20),#328,.F.);
#348=ADVANCED_FACE('',(#21),#329,.F.);
#349=ADVANCED_FACE('',(#22),#330,.F.);
#350=ADVANCED_FACE('',(#23),#331,.F.);
#351=ADVANCED_FACE('',(#24),#332,.F.);
#352=ADVANCED_FACE('',(#25),#333,.T.);
#353=ADVANCED_FACE('',(#26),#334,.T.);
#354=ADVANCED_FACE('',(#27),#335,.T.);
#355=ADVANCED_FACE('',(#28),#336,.T.);
#356=ADVANCED_FACE('',(#29),#337,.T.);
#357=ADVANCED_FACE('',(#30),#338,.T.);
#358=ADVANCED_FACE('',(#31),#339,.T.);
#359=ADVANCED_FACE('',(#32),#340,.T.);
#360=ADVANCED_FACE('',(#33),#341,.F.);
#361=ADVANCED_FACE('',(#34),#342,.F.);
#362=ADVANCED_FACE('',(#35),#17,.T.);
#363=ADVANCED_FACE('',(#36),#343,.T.);
#364=ADVANCED_FACE('',(#37),#344,.T.);
#365=ADVANCED_FACE('',(#38),#345,.T.);
#366=ADVANCED_FACE('',(#39),#346,.F.);
#367=CLOSED_SHELL('',(#347,#348,#349,#350,#351,#352,#353,#354,#355,#356,
#357,#358,#359,#360));
#368=CLOSED_SHELL('',(#361,#362,#363,#364,#365,#366));
#369=DERIVED_UNIT_ELEMENT(#371,1.);
#370=DERIVED_UNIT_ELEMENT(#602,3.);
#371=(
MASS_UNIT()
NAMED_UNIT(*)
SI_UNIT($,.GRAM.)
);
#372=DERIVED_UNIT((#369,#370));
#373=MEASURE_REPRESENTATION_ITEM('density measure',
POSITIVE_RATIO_MEASURE(1.),#372);
#374=PROPERTY_DEFINITION_REPRESENTATION(#379,#376);
#375=PROPERTY_DEFINITION_REPRESENTATION(#380,#377);
#376=REPRESENTATION('material name',(#378),#599);
#377=REPRESENTATION('density',(#373),#599);
#378=DESCRIPTIVE_REPRESENTATION_ITEM('Generisch','Generisch');
#379=PROPERTY_DEFINITION('material property','material name',#609);
#380=PROPERTY_DEFINITION('material property','density of part',#609);
#381=AXIS2_PLACEMENT_3D('placement',#496,#404,#405);
#382=AXIS2_PLACEMENT_3D('',#497,#406,#407);
#383=AXIS2_PLACEMENT_3D('',#506,#412,#413);
#384=AXIS2_PLACEMENT_3D('',#512,#417,#418);
#385=AXIS2_PLACEMENT_3D('',#518,#422,#423);
#386=AXIS2_PLACEMENT_3D('',#524,#427,#428);
#387=AXIS2_PLACEMENT_3D('',#530,#432,#433);
#388=AXIS2_PLACEMENT_3D('',#536,#437,#438);
#389=AXIS2_PLACEMENT_3D('',#542,#442,#443);
#390=AXIS2_PLACEMENT_3D('',#548,#447,#448);
#391=AXIS2_PLACEMENT_3D('',#554,#452,#453);
#392=AXIS2_PLACEMENT_3D('',#560,#457,#458);
#393=AXIS2_PLACEMENT_3D('',#566,#462,#463);
#394=AXIS2_PLACEMENT_3D('',#569,#466,#467);
#395=AXIS2_PLACEMENT_3D('',#570,#468,#469);
#396=AXIS2_PLACEMENT_3D('',#571,#470,#471);
#397=AXIS2_PLACEMENT_3D('',#580,#476,#477);
#398=AXIS2_PLACEMENT_3D('',#582,#478,#479);
#399=AXIS2_PLACEMENT_3D('',#585,#481,#482);
#400=AXIS2_PLACEMENT_3D('',#586,#483,#484);
#401=AXIS2_PLACEMENT_3D('',#592,#488,#489);
#402=AXIS2_PLACEMENT_3D('',#595,#492,#493);
#403=AXIS2_PLACEMENT_3D('',#596,#494,#495);
#404=DIRECTION('axis',(0.,0.,1.));
#405=DIRECTION('refdir',(1.,0.,0.));
#406=DIRECTION('center_axis',(1.,0.,0.));
#407=DIRECTION('ref_axis',(0.,1.,0.));
#408=DIRECTION('',(0.,1.,0.));
#409=DIRECTION('',(0.,0.,1.));
#410=DIRECTION('',(0.,1.,0.));
#411=DIRECTION('',(0.,0.,1.));
#412=DIRECTION('center_axis',(-0.711727266204167,0.702455905051372,0.));
#413=DIRECTION('ref_axis',(-0.702455905051372,-0.711727266204167,0.));
#414=DIRECTION('',(-0.702455905051372,-0.711727266204167,0.));
#415=DIRECTION('',(0.,0.,1.));
#416=DIRECTION('',(-0.702455905051372,-0.711727266204167,0.));
#417=DIRECTION('center_axis',(-0.70245590505137,-0.711727266204169,0.));
#418=DIRECTION('ref_axis',(0.711727266204169,-0.70245590505137,0.));
#419=DIRECTION('',(0.711727266204169,-0.70245590505137,0.));
#420=DIRECTION('',(0.,0.,1.));
#421=DIRECTION('',(0.711727266204169,-0.70245590505137,0.));
#422=DIRECTION('center_axis',(0.,-1.,0.));
#423=DIRECTION('ref_axis',(1.,0.,0.));
#424=DIRECTION('',(1.,0.,0.));
#425=DIRECTION('',(0.,0.,1.));
#426=DIRECTION('',(1.,0.,0.));
#427=DIRECTION('center_axis',(1.,-3.1720657846433E-16,0.));
#428=DIRECTION('ref_axis',(3.1720657846433E-16,1.,0.));
#429=DIRECTION('',(3.1720657846433E-16,1.,0.));
#430=DIRECTION('',(0.,0.,1.));
#431=DIRECTION('',(3.1720657846433E-16,1.,0.));
#432=DIRECTION('center_axis',(1.22464679914735E-16,-1.,0.));
#433=DIRECTION('ref_axis',(1.,1.22464679914735E-16,0.));
#434=DIRECTION('',(1.,1.22464679914735E-16,0.));
#435=DIRECTION('',(1.,1.22464679914735E-16,0.));
#436=DIRECTION('',(0.,0.,1.));
#437=DIRECTION('center_axis',(1.,0.,0.));
#438=DIRECTION('ref_axis',(0.,1.,0.));
#439=DIRECTION('',(0.,1.,0.));
#440=DIRECTION('',(0.,1.,0.));
#441=DIRECTION('',(0.,0.,1.));
#442=DIRECTION('center_axis',(-0.711727266204167,-0.702455905051372,0.));
#443=DIRECTION('ref_axis',(0.702455905051372,-0.711727266204167,0.));
#444=DIRECTION('',(0.702455905051372,-0.711727266204167,0.));
#445=DIRECTION('',(0.702455905051372,-0.711727266204167,0.));
#446=DIRECTION('',(0.,0.,1.));
#447=DIRECTION('center_axis',(-0.70245590505137,0.711727266204169,0.));
#448=DIRECTION('ref_axis',(-0.711727266204169,-0.70245590505137,0.));
#449=DIRECTION('',(-0.711727266204169,-0.70245590505137,0.));
#450=DIRECTION('',(-0.711727266204169,-0.70245590505137,0.));
#451=DIRECTION('',(0.,0.,1.));
#452=DIRECTION('center_axis',(0.,1.,0.));
#453=DIRECTION('ref_axis',(-1.,0.,0.));
#454=DIRECTION('',(-1.,0.,0.));
#455=DIRECTION('',(-1.,0.,0.));
#456=DIRECTION('',(0.,0.,1.));
#457=DIRECTION('center_axis',(1.,3.1720657846433E-16,0.));
#458=DIRECTION('ref_axis',(-3.1720657846433E-16,1.,0.));
#459=DIRECTION('',(-3.1720657846433E-16,1.,0.));
#460=DIRECTION('',(-3.1720657846433E-16,1.,0.));
#461=DIRECTION('',(0.,0.,1.));
#462=DIRECTION('center_axis',(-4.69709741187566E-16,1.,0.));
#463=DIRECTION('ref_axis',(-1.,-4.69709741187566E-16,0.));
#464=DIRECTION('',(-1.,-4.69709741187566E-16,0.));
#465=DIRECTION('',(1.,-4.69709741187566E-16,0.));
#466=DIRECTION('center_axis',(0.,0.,1.));
#467=DIRECTION('ref_axis',(1.,0.,0.));
#468=DIRECTION('center_axis',(0.,0.,1.));
#469=DIRECTION('ref_axis',(1.,0.,0.));
#470=DIRECTION('center_axis',(-1.,-5.55111512312579E-15,0.));
#471=DIRECTION('ref_axis',(5.55111512312579E-15,-1.,0.));
#472=DIRECTION('',(5.55111512312579E-15,-1.,0.));
#473=DIRECTION('',(0.,0.,1.));
#474=DIRECTION('',(5.55111512312579E-15,-1.,0.));
#475=DIRECTION('',(0.,0.,1.));
#476=DIRECTION('center_axis',(0.,0.,1.));
#477=DIRECTION('ref_axis',(-2.7565796239664E-16,1.,0.));
#478=DIRECTION('center_axis',(0.,0.,-1.));
#479=DIRECTION('ref_axis',(2.7565796239664E-16,1.,0.));
#480=DIRECTION('',(0.,0.,1.));
#481=DIRECTION('center_axis',(0.,0.,-1.));
#482=DIRECTION('ref_axis',(2.7565796239664E-16,1.,0.));
#483=DIRECTION('center_axis',(0.,-1.,0.));
#484=DIRECTION('ref_axis',(1.,0.,0.));
#485=DIRECTION('',(1.,0.,0.));
#486=DIRECTION('',(1.,0.,0.));
#487=DIRECTION('',(0.,0.,1.));
#488=DIRECTION('center_axis',(-1.,5.55111512312579E-15,0.));
#489=DIRECTION('ref_axis',(-5.55111512312579E-15,-1.,0.));
#490=DIRECTION('',(-5.55111512312579E-15,-1.,0.));
#491=DIRECTION('',(-5.55111512312579E-15,-1.,0.));
#492=DIRECTION('center_axis',(0.,0.,1.));
#493=DIRECTION('ref_axis',(1.,0.,0.));
#494=DIRECTION('center_axis',(0.,0.,1.));
#495=DIRECTION('ref_axis',(1.,0.,0.));
#496=CARTESIAN_POINT('',(0.,0.,0.));
#497=CARTESIAN_POINT('Origin',(3.,-3.08,0.));
#498=CARTESIAN_POINT('',(3.,-3.08,0.));
#499=CARTESIAN_POINT('',(3.,-3.67394039744206E-16,0.));
#500=CARTESIAN_POINT('',(3.,-3.08,0.));
#501=CARTESIAN_POINT('',(3.,-3.08,1000.));
#502=CARTESIAN_POINT('',(3.,-3.08,0.));
#503=CARTESIAN_POINT('',(3.,-2.77555756156289E-16,1000.));
#504=CARTESIAN_POINT('',(3.,-3.08,1000.));
#505=CARTESIAN_POINT('',(3.,-3.67394039744206E-16,0.));
#506=CARTESIAN_POINT('Origin',(13.125,7.17863476767298,0.));
#507=CARTESIAN_POINT('',(13.125,7.17863476767298,0.));
#508=CARTESIAN_POINT('',(13.125,7.17863476767298,0.));
#509=CARTESIAN_POINT('',(13.125,7.17863476767298,1000.));
#510=CARTESIAN_POINT('',(13.125,7.17863476767298,0.));
#511=CARTESIAN_POINT('',(13.125,7.17863476767298,1000.));
#512=CARTESIAN_POINT('Origin',(8.24000000000001,12.,0.));
#513=CARTESIAN_POINT('',(8.24000000000001,12.,0.));
#514=CARTESIAN_POINT('',(8.24000000000001,12.,0.));
#515=CARTESIAN_POINT('',(8.24000000000001,12.,1000.));
#516=CARTESIAN_POINT('',(8.24000000000001,12.,0.));
#517=CARTESIAN_POINT('',(8.24000000000001,12.,1000.));
#518=CARTESIAN_POINT('Origin',(6.50000000000001,12.,0.));
#519=CARTESIAN_POINT('',(6.50000000000001,12.,0.));
#520=CARTESIAN_POINT('',(6.50000000000001,12.,0.));
#521=CARTESIAN_POINT('',(6.50000000000001,12.,1000.));
#522=CARTESIAN_POINT('',(6.50000000000001,12.,0.));
#523=CARTESIAN_POINT('',(6.50000000000001,12.,1000.));
#524=CARTESIAN_POINT('Origin',(6.5,1.5,0.));
#525=CARTESIAN_POINT('',(6.5,1.5,0.));
#526=CARTESIAN_POINT('',(6.5,1.5,0.));
#527=CARTESIAN_POINT('',(6.5,1.5,1000.));
#528=CARTESIAN_POINT('',(6.5,1.5,0.));
#529=CARTESIAN_POINT('',(6.5,1.5,1000.));
#530=CARTESIAN_POINT('Origin',(-3.,-3.67394039744206E-16,0.));
#531=CARTESIAN_POINT('',(-3.,-3.67394039744206E-16,0.));
#532=CARTESIAN_POINT('',(-3.,-3.67394039744206E-16,0.));
#533=CARTESIAN_POINT('',(-3.,-2.77555756156289E-16,1000.));
#534=CARTESIAN_POINT('',(-3.,-3.67394039744206E-16,1000.));
#535=CARTESIAN_POINT('',(-3.,-3.67394039744206E-16,0.));
#536=CARTESIAN_POINT('Origin',(-3.,-3.08,0.));
#537=CARTESIAN_POINT('',(-3.,-3.08,0.));
#538=CARTESIAN_POINT('',(-3.,-3.08,0.));
#539=CARTESIAN_POINT('',(-3.,-3.08,1000.));
#540=CARTESIAN_POINT('',(-3.,-3.08,1000.));
#541=CARTESIAN_POINT('',(-3.,-3.08,0.));
#542=CARTESIAN_POINT('Origin',(-13.125,7.17863476767298,0.));
#543=CARTESIAN_POINT('',(-13.125,7.17863476767298,0.));
#544=CARTESIAN_POINT('',(-13.125,7.17863476767298,0.));
#545=CARTESIAN_POINT('',(-13.125,7.17863476767298,1000.));
#546=CARTESIAN_POINT('',(-13.125,7.17863476767298,1000.));
#547=CARTESIAN_POINT('',(-13.125,7.17863476767298,0.));
#548=CARTESIAN_POINT('Origin',(-8.24000000000001,12.,0.));
#549=CARTESIAN_POINT('',(-8.24000000000001,12.,0.));
#550=CARTESIAN_POINT('',(-8.24000000000001,12.,0.));
#551=CARTESIAN_POINT('',(-8.24000000000001,12.,1000.));
#552=CARTESIAN_POINT('',(-8.24000000000001,12.,1000.));
#553=CARTESIAN_POINT('',(-8.24000000000001,12.,0.));
#554=CARTESIAN_POINT('Origin',(-6.50000000000001,12.,0.));
#555=CARTESIAN_POINT('',(-6.50000000000001,12.,0.));
#556=CARTESIAN_POINT('',(-6.50000000000001,12.,0.));
#557=CARTESIAN_POINT('',(-6.50000000000001,12.,1000.));
#558=CARTESIAN_POINT('',(-6.50000000000001,12.,1000.));
#559=CARTESIAN_POINT('',(-6.50000000000001,12.,0.));
#560=CARTESIAN_POINT('Origin',(-6.5,1.5,0.));
#561=CARTESIAN_POINT('',(-6.5,1.5,0.));
#562=CARTESIAN_POINT('',(-6.5,1.5,0.));
#563=CARTESIAN_POINT('',(-6.5,1.5,1000.));
#564=CARTESIAN_POINT('',(-6.5,1.5,1000.));
#565=CARTESIAN_POINT('',(-6.5,1.5,0.));
#566=CARTESIAN_POINT('Origin',(-5.55111512312578E-16,1.5,0.));
#567=CARTESIAN_POINT('',(0.,1.5,0.));
#568=CARTESIAN_POINT('',(0.,1.5,1000.));
#569=CARTESIAN_POINT('Origin',(-6.5625,4.46,1000.));
#570=CARTESIAN_POINT('Origin',(-6.5625,4.46,0.));
#571=CARTESIAN_POINT('Origin',(6.3,12.,0.));
#572=CARTESIAN_POINT('',(6.3,12.,0.));
#573=CARTESIAN_POINT('',(6.30000000000001,11.,0.));
#574=CARTESIAN_POINT('',(6.3,12.,0.));
#575=CARTESIAN_POINT('',(6.3,12.,1000.));
#576=CARTESIAN_POINT('',(6.3,12.,0.));
#577=CARTESIAN_POINT('',(6.30000000000001,11.,1000.));
#578=CARTESIAN_POINT('',(6.3,12.,1000.));
#579=CARTESIAN_POINT('',(6.30000000000001,11.,0.));
#580=CARTESIAN_POINT('Origin',(-4.9960036108132E-15,11.6925,0.));
#581=CARTESIAN_POINT('',(-6.3,12.,0.));
#582=CARTESIAN_POINT('Origin',(4.9960036108132E-15,11.6925,0.));
#583=CARTESIAN_POINT('',(-6.3,12.,1000.));
#584=CARTESIAN_POINT('',(-6.3,12.,0.));
#585=CARTESIAN_POINT('Origin',(4.9960036108132E-15,11.6925,1000.));
#586=CARTESIAN_POINT('Origin',(-6.30000000000001,11.,0.));
#587=CARTESIAN_POINT('',(-6.30000000000001,11.,0.));
#588=CARTESIAN_POINT('',(-6.30000000000001,11.,0.));
#589=CARTESIAN_POINT('',(-6.30000000000001,11.,1000.));
#590=CARTESIAN_POINT('',(-6.30000000000001,11.,1000.));
#591=CARTESIAN_POINT('',(-6.30000000000001,11.,0.));
#592=CARTESIAN_POINT('Origin',(-6.3,12.,0.));
#593=CARTESIAN_POINT('',(-6.3,12.,0.));
#594=CARTESIAN_POINT('',(-6.3,12.,1000.));
#595=CARTESIAN_POINT('Origin',(-3.15000000000001,14.5,1000.));
#596=CARTESIAN_POINT('Origin',(-3.15000000000001,14.5,0.));
#597=UNCERTAINTY_MEASURE_WITH_UNIT(LENGTH_MEASURE(0.01),#601,
'DISTANCE_ACCURACY_VALUE',
'Maximum model space distance between geometric entities at asserted c
onnectivities');
#598=UNCERTAINTY_MEASURE_WITH_UNIT(LENGTH_MEASURE(0.01),#601,
'DISTANCE_ACCURACY_VALUE',
'Maximum model space distance between geometric entities at asserted c
onnectivities');
#599=(
GEOMETRIC_REPRESENTATION_CONTEXT(3)
GLOBAL_UNCERTAINTY_ASSIGNED_CONTEXT((#597))
GLOBAL_UNIT_ASSIGNED_CONTEXT((#601,#603,#604))
REPRESENTATION_CONTEXT('','3D')
);
#600=(
GEOMETRIC_REPRESENTATION_CONTEXT(3)
GLOBAL_UNCERTAINTY_ASSIGNED_CONTEXT((#598))
GLOBAL_UNIT_ASSIGNED_CONTEXT((#601,#603,#604))
REPRESENTATION_CONTEXT('','3D')
);
#601=(
LENGTH_UNIT()
NAMED_UNIT(*)
SI_UNIT(.MILLI.,.METRE.)
);
#602=(
LENGTH_UNIT()
NAMED_UNIT(*)
SI_UNIT(.CENTI.,.METRE.)
);
#603=(
NAMED_UNIT(*)
PLANE_ANGLE_UNIT()
SI_UNIT($,.RADIAN.)
);
#604=(
NAMED_UNIT(*)
SI_UNIT($,.STERADIAN.)
SOLID_ANGLE_UNIT()
);
#605=SHAPE_DEFINITION_REPRESENTATION(#606,#607);
#606=PRODUCT_DEFINITION_SHAPE('',$,#609);
#607=SHAPE_REPRESENTATION('',(#381),#599);
#608=PRODUCT_DEFINITION_CONTEXT('part definition',#613,'design');
#609=PRODUCT_DEFINITION('UNE-017_358-045-012_45\X\B0-Rund','Edge_30',#610,
#608);
#610=PRODUCT_DEFINITION_FORMATION('',$,#615);
#611=PRODUCT_RELATED_PRODUCT_CATEGORY('Edge_30','Edge_30',(#615));
#612=APPLICATION_PROTOCOL_DEFINITION('international standard',
'automotive_design',2009,#613);
#613=APPLICATION_CONTEXT(
'Core Data for Automotive Mechanical Design Process');
#614=PRODUCT_CONTEXT('part definition',#613,'mechanical');
#615=PRODUCT('UNE-017_358-045-012_45\X\B0-Rund','Edge_30',$,(#614));
#616=PRESENTATION_STYLE_ASSIGNMENT((#617));
#617=SURFACE_STYLE_USAGE(.BOTH.,#620);
#618=SURFACE_STYLE_RENDERING_WITH_PROPERTIES($,#624,(#619));
#619=SURFACE_STYLE_TRANSPARENT(0.);
#620=SURFACE_SIDE_STYLE('',(#621,#618));
#621=SURFACE_STYLE_FILL_AREA(#622);
#622=FILL_AREA_STYLE('',(#623));
#623=FILL_AREA_STYLE_COLOUR('',#624);
#624=COLOUR_RGB('',0.749019607843137,0.749019607843137,0.749019607843137);
ENDSEC;
END-ISO-10303-21;
