ISO-10303-21;
HEADER;
/* Generated by software containing ST-Developer
 * from STEP Tools, Inc. (www.steptools.com) 
 */

FILE_DESCRIPTION(
/* description */ (''),
/* implementation_level */ '2;1');

FILE_NAME(
/* name */ 
'P:\\Projekte\\PP1292 Unex Dakota LED Profile\\22-Zeichnungen St\X\FCc
klisten\\Anwender_3D-Daten\\3D_Planar_Kragen_30.stp',
/* time_stamp */ '2021-03-22T14:17:20+01:00',
/* author */ ('sstotter'),
/* organization */ (''),
/* preprocessor_version */ 'ST-DEVELOPER v18.1',
/* originating_system */ 'Autodesk Inventor 2021',
/* authorisation */ '');

FILE_SCHEMA (('AUTOMOTIVE_DESIGN { 1 0 10303 214 3 1 1 }'));
ENDSEC;

DATA;
#10=MECHANICAL_DESIGN_GEOMETRIC_PRESENTATION_REPRESENTATION('',(#13,#14),
#600);
#11=SHAPE_REPRESENTATION_RELATIONSHIP('SRR','None',#607,#12);
#12=ADVANCED_BREP_SHAPE_REPRESENTATION('',(#15,#16),#599);
#13=STYLED_ITEM('',(#616),#15);
#14=STYLED_ITEM('',(#616),#16);
#15=MANIFOLD_SOLID_BREP('Volumenk\X\F6rper1',#367);
#16=MANIFOLD_SOLID_BREP('Volumenk\X\F6rper1',#368);
#17=CYLINDRICAL_SURFACE('',#387,6.91020833333334);
#18=CIRCLE('',#384,6.91020833333334);
#19=CIRCLE('',#388,6.91020833333334);
#20=FACE_OUTER_BOUND('',#40,.T.);
#21=FACE_OUTER_BOUND('',#41,.T.);
#22=FACE_OUTER_BOUND('',#42,.T.);
#23=FACE_OUTER_BOUND('',#43,.T.);
#24=FACE_OUTER_BOUND('',#44,.T.);
#25=FACE_OUTER_BOUND('',#45,.T.);
#26=FACE_OUTER_BOUND('',#46,.T.);
#27=FACE_OUTER_BOUND('',#47,.T.);
#28=FACE_OUTER_BOUND('',#48,.T.);
#29=FACE_OUTER_BOUND('',#49,.T.);
#30=FACE_OUTER_BOUND('',#50,.T.);
#31=FACE_OUTER_BOUND('',#51,.T.);
#32=FACE_OUTER_BOUND('',#52,.T.);
#33=FACE_OUTER_BOUND('',#53,.T.);
#34=FACE_OUTER_BOUND('',#54,.T.);
#35=FACE_OUTER_BOUND('',#55,.T.);
#36=FACE_OUTER_BOUND('',#56,.T.);
#37=FACE_OUTER_BOUND('',#57,.T.);
#38=FACE_OUTER_BOUND('',#58,.T.);
#39=FACE_OUTER_BOUND('',#59,.T.);
#40=EDGE_LOOP('',(#232,#233,#234,#235));
#41=EDGE_LOOP('',(#236,#237,#238,#239));
#42=EDGE_LOOP('',(#240,#241,#242,#243));
#43=EDGE_LOOP('',(#244,#245,#246,#247));
#44=EDGE_LOOP('',(#248,#249,#250,#251));
#45=EDGE_LOOP('',(#252,#253,#254,#255));
#46=EDGE_LOOP('',(#256,#257,#258,#259));
#47=EDGE_LOOP('',(#260,#261,#262,#263));
#48=EDGE_LOOP('',(#264,#265,#266,#267));
#49=EDGE_LOOP('',(#268,#269,#270,#271));
#50=EDGE_LOOP('',(#272,#273,#274,#275));
#51=EDGE_LOOP('',(#276,#277,#278,#279,#280,#281,#282,#283,#284,#285,#286,
#287));
#52=EDGE_LOOP('',(#288,#289,#290,#291));
#53=EDGE_LOOP('',(#292,#293,#294,#295));
#54=EDGE_LOOP('',(#296,#297,#298,#299));
#55=EDGE_LOOP('',(#300,#301,#302,#303));
#56=EDGE_LOOP('',(#304,#305,#306,#307));
#57=EDGE_LOOP('',(#308,#309,#310,#311));
#58=EDGE_LOOP('',(#312,#313,#314,#315));
#59=EDGE_LOOP('',(#316,#317,#318,#319,#320,#321,#322,#323,#324,#325,#326,
#327));
#60=LINE('',#500,#106);
#61=LINE('',#502,#107);
#62=LINE('',#504,#108);
#63=LINE('',#505,#109);
#64=LINE('',#510,#110);
#65=LINE('',#511,#111);
#66=LINE('',#514,#112);
#67=LINE('',#515,#113);
#68=LINE('',#518,#114);
#69=LINE('',#519,#115);
#70=LINE('',#526,#116);
#71=LINE('',#528,#117);
#72=LINE('',#530,#118);
#73=LINE('',#531,#119);
#74=LINE('',#535,#120);
#75=LINE('',#537,#121);
#76=LINE('',#539,#122);
#77=LINE('',#540,#123);
#78=LINE('',#543,#124);
#79=LINE('',#545,#125);
#80=LINE('',#546,#126);
#81=LINE('',#549,#127);
#82=LINE('',#551,#128);
#83=LINE('',#552,#129);
#84=LINE('',#554,#130);
#85=LINE('',#555,#131);
#86=LINE('',#559,#132);
#87=LINE('',#561,#133);
#88=LINE('',#562,#134);
#89=LINE('',#564,#135);
#90=LINE('',#566,#136);
#91=LINE('',#568,#137);
#92=LINE('',#569,#138);
#93=LINE('',#572,#139);
#94=LINE('',#574,#140);
#95=LINE('',#575,#141);
#96=LINE('',#577,#142);
#97=LINE('',#580,#143);
#98=LINE('',#581,#144);
#99=LINE('',#584,#145);
#100=LINE('',#585,#146);
#101=LINE('',#588,#147);
#102=LINE('',#589,#148);
#103=LINE('',#592,#149);
#104=LINE('',#593,#150);
#105=LINE('',#595,#151);
#106=VECTOR('',#408,10.);
#107=VECTOR('',#409,10.);
#108=VECTOR('',#410,10.);
#109=VECTOR('',#411,10.);
#110=VECTOR('',#416,10.);
#111=VECTOR('',#417,10.);
#112=VECTOR('',#420,10.);
#113=VECTOR('',#421,10.);
#114=VECTOR('',#424,10.);
#115=VECTOR('',#425,10.);
#116=VECTOR('',#434,10.);
#117=VECTOR('',#435,10.);
#118=VECTOR('',#436,10.);
#119=VECTOR('',#437,10.);
#120=VECTOR('',#440,10.);
#121=VECTOR('',#441,10.);
#122=VECTOR('',#442,10.);
#123=VECTOR('',#443,10.);
#124=VECTOR('',#446,10.);
#125=VECTOR('',#447,10.);
#126=VECTOR('',#448,10.);
#127=VECTOR('',#451,10.);
#128=VECTOR('',#452,10.);
#129=VECTOR('',#453,10.);
#130=VECTOR('',#456,10.);
#131=VECTOR('',#457,10.);
#132=VECTOR('',#460,10.);
#133=VECTOR('',#461,10.);
#134=VECTOR('',#462,10.);
#135=VECTOR('',#463,10.);
#136=VECTOR('',#464,10.);
#137=VECTOR('',#465,10.);
#138=VECTOR('',#466,10.);
#139=VECTOR('',#469,10.);
#140=VECTOR('',#470,10.);
#141=VECTOR('',#471,10.);
#142=VECTOR('',#474,10.);
#143=VECTOR('',#477,10.);
#144=VECTOR('',#478,10.);
#145=VECTOR('',#481,10.);
#146=VECTOR('',#482,10.);
#147=VECTOR('',#485,10.);
#148=VECTOR('',#486,10.);
#149=VECTOR('',#489,10.);
#150=VECTOR('',#490,10.);
#151=VECTOR('',#493,10.);
#152=VERTEX_POINT('',#498);
#153=VERTEX_POINT('',#499);
#154=VERTEX_POINT('',#501);
#155=VERTEX_POINT('',#503);
#156=VERTEX_POINT('',#507);
#157=VERTEX_POINT('',#509);
#158=VERTEX_POINT('',#513);
#159=VERTEX_POINT('',#517);
#160=VERTEX_POINT('',#524);
#161=VERTEX_POINT('',#525);
#162=VERTEX_POINT('',#527);
#163=VERTEX_POINT('',#529);
#164=VERTEX_POINT('',#533);
#165=VERTEX_POINT('',#534);
#166=VERTEX_POINT('',#536);
#167=VERTEX_POINT('',#538);
#168=VERTEX_POINT('',#542);
#169=VERTEX_POINT('',#544);
#170=VERTEX_POINT('',#548);
#171=VERTEX_POINT('',#550);
#172=VERTEX_POINT('',#557);
#173=VERTEX_POINT('',#558);
#174=VERTEX_POINT('',#560);
#175=VERTEX_POINT('',#563);
#176=VERTEX_POINT('',#565);
#177=VERTEX_POINT('',#567);
#178=VERTEX_POINT('',#571);
#179=VERTEX_POINT('',#573);
#180=VERTEX_POINT('',#579);
#181=VERTEX_POINT('',#583);
#182=VERTEX_POINT('',#587);
#183=VERTEX_POINT('',#591);
#184=EDGE_CURVE('',#152,#153,#60,.T.);
#185=EDGE_CURVE('',#152,#154,#61,.T.);
#186=EDGE_CURVE('',#154,#155,#62,.T.);
#187=EDGE_CURVE('',#155,#153,#63,.T.);
#188=EDGE_CURVE('',#156,#154,#18,.T.);
#189=EDGE_CURVE('',#157,#152,#64,.T.);
#190=EDGE_CURVE('',#157,#156,#65,.T.);
#191=EDGE_CURVE('',#158,#153,#66,.T.);
#192=EDGE_CURVE('',#157,#158,#67,.T.);
#193=EDGE_CURVE('',#159,#158,#68,.T.);
#194=EDGE_CURVE('',#156,#159,#69,.T.);
#195=EDGE_CURVE('',#159,#155,#19,.T.);
#196=EDGE_CURVE('',#160,#161,#70,.T.);
#197=EDGE_CURVE('',#161,#162,#71,.T.);
#198=EDGE_CURVE('',#162,#163,#72,.T.);
#199=EDGE_CURVE('',#163,#160,#73,.T.);
#200=EDGE_CURVE('',#164,#165,#74,.T.);
#201=EDGE_CURVE('',#164,#166,#75,.T.);
#202=EDGE_CURVE('',#166,#167,#76,.T.);
#203=EDGE_CURVE('',#167,#165,#77,.T.);
#204=EDGE_CURVE('',#166,#168,#78,.T.);
#205=EDGE_CURVE('',#168,#169,#79,.T.);
#206=EDGE_CURVE('',#169,#167,#80,.T.);
#207=EDGE_CURVE('',#168,#170,#81,.T.);
#208=EDGE_CURVE('',#170,#171,#82,.T.);
#209=EDGE_CURVE('',#171,#169,#83,.T.);
#210=EDGE_CURVE('',#170,#161,#84,.T.);
#211=EDGE_CURVE('',#160,#171,#85,.T.);
#212=EDGE_CURVE('',#172,#173,#86,.T.);
#213=EDGE_CURVE('',#173,#174,#87,.T.);
#214=EDGE_CURVE('',#174,#162,#88,.T.);
#215=EDGE_CURVE('',#175,#164,#89,.T.);
#216=EDGE_CURVE('',#175,#176,#90,.T.);
#217=EDGE_CURVE('',#176,#177,#91,.T.);
#218=EDGE_CURVE('',#177,#172,#92,.T.);
#219=EDGE_CURVE('',#178,#173,#93,.T.);
#220=EDGE_CURVE('',#179,#178,#94,.T.);
#221=EDGE_CURVE('',#174,#179,#95,.T.);
#222=EDGE_CURVE('',#179,#163,#96,.T.);
#223=EDGE_CURVE('',#180,#165,#97,.T.);
#224=EDGE_CURVE('',#175,#180,#98,.T.);
#225=EDGE_CURVE('',#181,#180,#99,.T.);
#226=EDGE_CURVE('',#176,#181,#100,.T.);
#227=EDGE_CURVE('',#182,#181,#101,.T.);
#228=EDGE_CURVE('',#177,#182,#102,.T.);
#229=EDGE_CURVE('',#183,#182,#103,.T.);
#230=EDGE_CURVE('',#172,#183,#104,.T.);
#231=EDGE_CURVE('',#178,#183,#105,.T.);
#232=ORIENTED_EDGE('',*,*,#184,.F.);
#233=ORIENTED_EDGE('',*,*,#185,.T.);
#234=ORIENTED_EDGE('',*,*,#186,.T.);
#235=ORIENTED_EDGE('',*,*,#187,.T.);
#236=ORIENTED_EDGE('',*,*,#188,.T.);
#237=ORIENTED_EDGE('',*,*,#185,.F.);
#238=ORIENTED_EDGE('',*,*,#189,.F.);
#239=ORIENTED_EDGE('',*,*,#190,.T.);
#240=ORIENTED_EDGE('',*,*,#191,.F.);
#241=ORIENTED_EDGE('',*,*,#192,.F.);
#242=ORIENTED_EDGE('',*,*,#189,.T.);
#243=ORIENTED_EDGE('',*,*,#184,.T.);
#244=ORIENTED_EDGE('',*,*,#192,.T.);
#245=ORIENTED_EDGE('',*,*,#193,.F.);
#246=ORIENTED_EDGE('',*,*,#194,.F.);
#247=ORIENTED_EDGE('',*,*,#190,.F.);
#248=ORIENTED_EDGE('',*,*,#194,.T.);
#249=ORIENTED_EDGE('',*,*,#195,.T.);
#250=ORIENTED_EDGE('',*,*,#186,.F.);
#251=ORIENTED_EDGE('',*,*,#188,.F.);
#252=ORIENTED_EDGE('',*,*,#195,.F.);
#253=ORIENTED_EDGE('',*,*,#193,.T.);
#254=ORIENTED_EDGE('',*,*,#191,.T.);
#255=ORIENTED_EDGE('',*,*,#187,.F.);
#256=ORIENTED_EDGE('',*,*,#196,.T.);
#257=ORIENTED_EDGE('',*,*,#197,.T.);
#258=ORIENTED_EDGE('',*,*,#198,.T.);
#259=ORIENTED_EDGE('',*,*,#199,.T.);
#260=ORIENTED_EDGE('',*,*,#200,.F.);
#261=ORIENTED_EDGE('',*,*,#201,.T.);
#262=ORIENTED_EDGE('',*,*,#202,.T.);
#263=ORIENTED_EDGE('',*,*,#203,.T.);
#264=ORIENTED_EDGE('',*,*,#202,.F.);
#265=ORIENTED_EDGE('',*,*,#204,.T.);
#266=ORIENTED_EDGE('',*,*,#205,.T.);
#267=ORIENTED_EDGE('',*,*,#206,.T.);
#268=ORIENTED_EDGE('',*,*,#205,.F.);
#269=ORIENTED_EDGE('',*,*,#207,.T.);
#270=ORIENTED_EDGE('',*,*,#208,.T.);
#271=ORIENTED_EDGE('',*,*,#209,.T.);
#272=ORIENTED_EDGE('',*,*,#208,.F.);
#273=ORIENTED_EDGE('',*,*,#210,.T.);
#274=ORIENTED_EDGE('',*,*,#196,.F.);
#275=ORIENTED_EDGE('',*,*,#211,.T.);
#276=ORIENTED_EDGE('',*,*,#212,.T.);
#277=ORIENTED_EDGE('',*,*,#213,.T.);
#278=ORIENTED_EDGE('',*,*,#214,.T.);
#279=ORIENTED_EDGE('',*,*,#197,.F.);
#280=ORIENTED_EDGE('',*,*,#210,.F.);
#281=ORIENTED_EDGE('',*,*,#207,.F.);
#282=ORIENTED_EDGE('',*,*,#204,.F.);
#283=ORIENTED_EDGE('',*,*,#201,.F.);
#284=ORIENTED_EDGE('',*,*,#215,.F.);
#285=ORIENTED_EDGE('',*,*,#216,.T.);
#286=ORIENTED_EDGE('',*,*,#217,.T.);
#287=ORIENTED_EDGE('',*,*,#218,.T.);
#288=ORIENTED_EDGE('',*,*,#219,.F.);
#289=ORIENTED_EDGE('',*,*,#220,.F.);
#290=ORIENTED_EDGE('',*,*,#221,.F.);
#291=ORIENTED_EDGE('',*,*,#213,.F.);
#292=ORIENTED_EDGE('',*,*,#221,.T.);
#293=ORIENTED_EDGE('',*,*,#222,.T.);
#294=ORIENTED_EDGE('',*,*,#198,.F.);
#295=ORIENTED_EDGE('',*,*,#214,.F.);
#296=ORIENTED_EDGE('',*,*,#223,.F.);
#297=ORIENTED_EDGE('',*,*,#224,.F.);
#298=ORIENTED_EDGE('',*,*,#215,.T.);
#299=ORIENTED_EDGE('',*,*,#200,.T.);
#300=ORIENTED_EDGE('',*,*,#224,.T.);
#301=ORIENTED_EDGE('',*,*,#225,.F.);
#302=ORIENTED_EDGE('',*,*,#226,.F.);
#303=ORIENTED_EDGE('',*,*,#216,.F.);
#304=ORIENTED_EDGE('',*,*,#226,.T.);
#305=ORIENTED_EDGE('',*,*,#227,.F.);
#306=ORIENTED_EDGE('',*,*,#228,.F.);
#307=ORIENTED_EDGE('',*,*,#217,.F.);
#308=ORIENTED_EDGE('',*,*,#228,.T.);
#309=ORIENTED_EDGE('',*,*,#229,.F.);
#310=ORIENTED_EDGE('',*,*,#230,.F.);
#311=ORIENTED_EDGE('',*,*,#218,.F.);
#312=ORIENTED_EDGE('',*,*,#230,.T.);
#313=ORIENTED_EDGE('',*,*,#231,.F.);
#314=ORIENTED_EDGE('',*,*,#219,.T.);
#315=ORIENTED_EDGE('',*,*,#212,.F.);
#316=ORIENTED_EDGE('',*,*,#231,.T.);
#317=ORIENTED_EDGE('',*,*,#229,.T.);
#318=ORIENTED_EDGE('',*,*,#227,.T.);
#319=ORIENTED_EDGE('',*,*,#225,.T.);
#320=ORIENTED_EDGE('',*,*,#223,.T.);
#321=ORIENTED_EDGE('',*,*,#203,.F.);
#322=ORIENTED_EDGE('',*,*,#206,.F.);
#323=ORIENTED_EDGE('',*,*,#209,.F.);
#324=ORIENTED_EDGE('',*,*,#211,.F.);
#325=ORIENTED_EDGE('',*,*,#199,.F.);
#326=ORIENTED_EDGE('',*,*,#222,.F.);
#327=ORIENTED_EDGE('',*,*,#220,.T.);
#328=PLANE('',#382);
#329=PLANE('',#383);
#330=PLANE('',#385);
#331=PLANE('',#386);
#332=PLANE('',#389);
#333=PLANE('',#390);
#334=PLANE('',#391);
#335=PLANE('',#392);
#336=PLANE('',#393);
#337=PLANE('',#394);
#338=PLANE('',#395);
#339=PLANE('',#396);
#340=PLANE('',#397);
#341=PLANE('',#398);
#342=PLANE('',#399);
#343=PLANE('',#400);
#344=PLANE('',#401);
#345=PLANE('',#402);
#346=PLANE('',#403);
#347=ADVANCED_FACE('',(#20),#328,.F.);
#348=ADVANCED_FACE('',(#21),#329,.F.);
#349=ADVANCED_FACE('',(#22),#330,.T.);
#350=ADVANCED_FACE('',(#23),#331,.T.);
#351=ADVANCED_FACE('',(#24),#17,.T.);
#352=ADVANCED_FACE('',(#25),#332,.T.);
#353=ADVANCED_FACE('',(#26),#333,.F.);
#354=ADVANCED_FACE('',(#27),#334,.F.);
#355=ADVANCED_FACE('',(#28),#335,.F.);
#356=ADVANCED_FACE('',(#29),#336,.F.);
#357=ADVANCED_FACE('',(#30),#337,.F.);
#358=ADVANCED_FACE('',(#31),#338,.T.);
#359=ADVANCED_FACE('',(#32),#339,.T.);
#360=ADVANCED_FACE('',(#33),#340,.T.);
#361=ADVANCED_FACE('',(#34),#341,.T.);
#362=ADVANCED_FACE('',(#35),#342,.T.);
#363=ADVANCED_FACE('',(#36),#343,.T.);
#364=ADVANCED_FACE('',(#37),#344,.T.);
#365=ADVANCED_FACE('',(#38),#345,.T.);
#366=ADVANCED_FACE('',(#39),#346,.T.);
#367=CLOSED_SHELL('',(#347,#348,#349,#350,#351,#352));
#368=CLOSED_SHELL('',(#353,#354,#355,#356,#357,#358,#359,#360,#361,#362,
#363,#364,#365,#366));
#369=DERIVED_UNIT_ELEMENT(#371,1.);
#370=DERIVED_UNIT_ELEMENT(#602,3.);
#371=(
MASS_UNIT()
NAMED_UNIT(*)
SI_UNIT($,.GRAM.)
);
#372=DERIVED_UNIT((#369,#370));
#373=MEASURE_REPRESENTATION_ITEM('density measure',
POSITIVE_RATIO_MEASURE(1.),#372);
#374=PROPERTY_DEFINITION_REPRESENTATION(#379,#376);
#375=PROPERTY_DEFINITION_REPRESENTATION(#380,#377);
#376=REPRESENTATION('material name',(#378),#599);
#377=REPRESENTATION('density',(#373),#599);
#378=DESCRIPTIVE_REPRESENTATION_ITEM('Generisch','Generisch');
#379=PROPERTY_DEFINITION('material property','material name',#609);
#380=PROPERTY_DEFINITION('material property','density of part',#609);
#381=AXIS2_PLACEMENT_3D('placement',#496,#404,#405);
#382=AXIS2_PLACEMENT_3D('',#497,#406,#407);
#383=AXIS2_PLACEMENT_3D('',#506,#412,#413);
#384=AXIS2_PLACEMENT_3D('',#508,#414,#415);
#385=AXIS2_PLACEMENT_3D('',#512,#418,#419);
#386=AXIS2_PLACEMENT_3D('',#516,#422,#423);
#387=AXIS2_PLACEMENT_3D('',#520,#426,#427);
#388=AXIS2_PLACEMENT_3D('',#521,#428,#429);
#389=AXIS2_PLACEMENT_3D('',#522,#430,#431);
#390=AXIS2_PLACEMENT_3D('',#523,#432,#433);
#391=AXIS2_PLACEMENT_3D('',#532,#438,#439);
#392=AXIS2_PLACEMENT_3D('',#541,#444,#445);
#393=AXIS2_PLACEMENT_3D('',#547,#449,#450);
#394=AXIS2_PLACEMENT_3D('',#553,#454,#455);
#395=AXIS2_PLACEMENT_3D('',#556,#458,#459);
#396=AXIS2_PLACEMENT_3D('',#570,#467,#468);
#397=AXIS2_PLACEMENT_3D('',#576,#472,#473);
#398=AXIS2_PLACEMENT_3D('',#578,#475,#476);
#399=AXIS2_PLACEMENT_3D('',#582,#479,#480);
#400=AXIS2_PLACEMENT_3D('',#586,#483,#484);
#401=AXIS2_PLACEMENT_3D('',#590,#487,#488);
#402=AXIS2_PLACEMENT_3D('',#594,#491,#492);
#403=AXIS2_PLACEMENT_3D('',#596,#494,#495);
#404=DIRECTION('axis',(0.,0.,1.));
#405=DIRECTION('refdir',(1.,0.,0.));
#406=DIRECTION('center_axis',(-1.,0.,0.));
#407=DIRECTION('ref_axis',(0.,-1.,0.));
#408=DIRECTION('',(0.,0.,1.));
#409=DIRECTION('',(0.,1.,0.));
#410=DIRECTION('',(0.,0.,1.));
#411=DIRECTION('',(0.,-1.,0.));
#412=DIRECTION('center_axis',(0.,0.,1.));
#413=DIRECTION('ref_axis',(1.,0.,0.));
#414=DIRECTION('center_axis',(0.,0.,-1.));
#415=DIRECTION('ref_axis',(-6.42656760010944E-16,1.,0.));
#416=DIRECTION('',(1.,-1.22464679914735E-16,0.));
#417=DIRECTION('',(0.,1.,0.));
#418=DIRECTION('center_axis',(1.22464679914735E-16,-1.,0.));
#419=DIRECTION('ref_axis',(1.,1.22464679914735E-16,0.));
#420=DIRECTION('',(1.,1.22464679914735E-16,0.));
#421=DIRECTION('',(0.,0.,1.));
#422=DIRECTION('center_axis',(-1.,0.,0.));
#423=DIRECTION('ref_axis',(0.,-1.,0.));
#424=DIRECTION('',(0.,-1.,0.));
#425=DIRECTION('',(0.,0.,1.));
#426=DIRECTION('center_axis',(0.,0.,1.));
#427=DIRECTION('ref_axis',(-6.42656760010944E-16,1.,0.));
#428=DIRECTION('center_axis',(0.,0.,-1.));
#429=DIRECTION('ref_axis',(6.42656760010944E-16,1.,0.));
#430=DIRECTION('center_axis',(0.,0.,1.));
#431=DIRECTION('ref_axis',(1.,0.,0.));
#432=DIRECTION('center_axis',(1.,-8.07434927000113E-16,0.));
#433=DIRECTION('ref_axis',(8.07434927000113E-16,1.,0.));
#434=DIRECTION('',(0.,0.,-1.));
#435=DIRECTION('',(-8.07434927000113E-16,-1.,0.));
#436=DIRECTION('',(0.,0.,1.));
#437=DIRECTION('',(8.07434927000113E-16,1.,0.));
#438=DIRECTION('center_axis',(-1.,0.,0.));
#439=DIRECTION('ref_axis',(0.,-1.,0.));
#440=DIRECTION('',(0.,0.,1.));
#441=DIRECTION('',(0.,1.,0.));
#442=DIRECTION('',(0.,0.,1.));
#443=DIRECTION('',(0.,-1.,0.));
#444=DIRECTION('center_axis',(4.75809867696496E-16,1.,0.));
#445=DIRECTION('ref_axis',(-1.,4.75809867696496E-16,0.));
#446=DIRECTION('',(1.,-4.75809867696496E-16,0.));
#447=DIRECTION('',(0.,0.,1.));
#448=DIRECTION('',(-1.,4.75809867696496E-16,0.));
#449=DIRECTION('center_axis',(-1.,0.,0.));
#450=DIRECTION('ref_axis',(0.,-1.,0.));
#451=DIRECTION('',(0.,1.,0.));
#452=DIRECTION('',(0.,0.,1.));
#453=DIRECTION('',(0.,-1.,0.));
#454=DIRECTION('center_axis',(-5.87137176484458E-16,-1.,0.));
#455=DIRECTION('ref_axis',(1.,-5.87137176484458E-16,0.));
#456=DIRECTION('',(-1.,5.87137176484458E-16,0.));
#457=DIRECTION('',(1.,-5.87137176484458E-16,0.));
#458=DIRECTION('center_axis',(0.,0.,-1.));
#459=DIRECTION('ref_axis',(-1.,0.,0.));
#460=DIRECTION('',(1.,5.87137176484458E-16,0.));
#461=DIRECTION('',(8.07434927000113E-16,-1.,0.));
#462=DIRECTION('',(1.,3.14956886418484E-16,0.));
#463=DIRECTION('',(1.,0.,0.));
#464=DIRECTION('',(0.,1.,0.));
#465=DIRECTION('',(-1.,-4.75809867696496E-16,0.));
#466=DIRECTION('',(0.,1.,0.));
#467=DIRECTION('center_axis',(1.,8.07434927000113E-16,0.));
#468=DIRECTION('ref_axis',(-8.07434927000113E-16,1.,0.));
#469=DIRECTION('',(0.,0.,-1.));
#470=DIRECTION('',(-8.07434927000113E-16,1.,0.));
#471=DIRECTION('',(0.,0.,1.));
#472=DIRECTION('center_axis',(-3.14956886418484E-16,1.,0.));
#473=DIRECTION('ref_axis',(-1.,-3.14956886418484E-16,0.));
#474=DIRECTION('',(1.,-3.14956886418484E-16,0.));
#475=DIRECTION('center_axis',(0.,-1.,0.));
#476=DIRECTION('ref_axis',(1.,0.,0.));
#477=DIRECTION('',(1.,0.,0.));
#478=DIRECTION('',(0.,0.,1.));
#479=DIRECTION('center_axis',(-1.,0.,0.));
#480=DIRECTION('ref_axis',(0.,-1.,0.));
#481=DIRECTION('',(0.,-1.,0.));
#482=DIRECTION('',(0.,0.,1.));
#483=DIRECTION('center_axis',(4.75809867696496E-16,-1.,0.));
#484=DIRECTION('ref_axis',(1.,4.75809867696496E-16,0.));
#485=DIRECTION('',(1.,4.75809867696496E-16,0.));
#486=DIRECTION('',(0.,0.,1.));
#487=DIRECTION('center_axis',(-1.,0.,0.));
#488=DIRECTION('ref_axis',(0.,-1.,0.));
#489=DIRECTION('',(0.,-1.,0.));
#490=DIRECTION('',(0.,0.,1.));
#491=DIRECTION('center_axis',(-5.87137176484458E-16,1.,0.));
#492=DIRECTION('ref_axis',(-1.,-5.87137176484458E-16,0.));
#493=DIRECTION('',(-1.,-5.87137176484458E-16,0.));
#494=DIRECTION('center_axis',(0.,0.,1.));
#495=DIRECTION('ref_axis',(1.,0.,0.));
#496=CARTESIAN_POINT('',(0.,0.,0.));
#497=CARTESIAN_POINT('Origin',(6.85,1.4,0.));
#498=CARTESIAN_POINT('',(6.85,-1.11022302462516E-15,-500.));
#499=CARTESIAN_POINT('',(6.85,-1.11022302462516E-15,500.));
#500=CARTESIAN_POINT('',(6.85,-8.38883057415937E-16,0.));
#501=CARTESIAN_POINT('',(6.85,1.4,-500.));
#502=CARTESIAN_POINT('',(6.85,1.4,-500.));
#503=CARTESIAN_POINT('',(6.85,1.4,500.));
#504=CARTESIAN_POINT('',(6.85,1.4,0.));
#505=CARTESIAN_POINT('',(6.85,1.4,500.));
#506=CARTESIAN_POINT('Origin',(-3.425,3.7,-500.));
#507=CARTESIAN_POINT('',(-6.85,1.4,-500.));
#508=CARTESIAN_POINT('Origin',(0.,0.489791666666668,-500.));
#509=CARTESIAN_POINT('',(-6.85,-1.11022302462516E-15,-500.));
#510=CARTESIAN_POINT('',(6.85,-8.38883057415937E-16,-500.));
#511=CARTESIAN_POINT('',(-6.85,1.4,-500.));
#512=CARTESIAN_POINT('Origin',(-6.85,-8.38883057415937E-16,0.));
#513=CARTESIAN_POINT('',(-6.85,-1.11022302462516E-15,500.));
#514=CARTESIAN_POINT('',(-6.85,-8.38883057415937E-16,500.));
#515=CARTESIAN_POINT('',(-6.85,-8.38883057415937E-16,0.));
#516=CARTESIAN_POINT('Origin',(-6.85,1.4,0.));
#517=CARTESIAN_POINT('',(-6.85,1.4,500.));
#518=CARTESIAN_POINT('',(-6.85,1.4,500.));
#519=CARTESIAN_POINT('',(-6.85,1.4,0.));
#520=CARTESIAN_POINT('Origin',(0.,0.489791666666668,0.));
#521=CARTESIAN_POINT('Origin',(0.,0.489791666666668,500.));
#522=CARTESIAN_POINT('Origin',(-3.425,3.7,500.));
#523=CARTESIAN_POINT('Origin',(7.05,-4.1,0.));
#524=CARTESIAN_POINT('',(7.05,1.4,500.));
#525=CARTESIAN_POINT('',(7.05,1.4,-500.));
#526=CARTESIAN_POINT('',(7.05,1.4,0.));
#527=CARTESIAN_POINT('',(7.05,-4.1,-500.));
#528=CARTESIAN_POINT('',(7.05,-4.1,-500.));
#529=CARTESIAN_POINT('',(7.05,-4.1,500.));
#530=CARTESIAN_POINT('',(7.05,-4.1,0.));
#531=CARTESIAN_POINT('',(7.05,-4.1,500.));
#532=CARTESIAN_POINT('Origin',(8.75,-5.55111512312578E-16,0.));
#533=CARTESIAN_POINT('',(8.75,-5.6,-500.));
#534=CARTESIAN_POINT('',(8.75,-5.6,500.));
#535=CARTESIAN_POINT('',(8.75,-5.6,0.));
#536=CARTESIAN_POINT('',(8.75,-5.55111512312578E-16,-500.));
#537=CARTESIAN_POINT('',(8.75,0.,-500.));
#538=CARTESIAN_POINT('',(8.75,-5.55111512312578E-16,500.));
#539=CARTESIAN_POINT('',(8.75,-5.55111512312578E-16,0.));
#540=CARTESIAN_POINT('',(8.75,0.,500.));
#541=CARTESIAN_POINT('Origin',(12.25,-2.22044604925031E-15,0.));
#542=CARTESIAN_POINT('',(12.25,-2.22044604925031E-15,-500.));
#543=CARTESIAN_POINT('',(12.25,-2.22044604925031E-15,-500.));
#544=CARTESIAN_POINT('',(12.25,-2.22044604925031E-15,500.));
#545=CARTESIAN_POINT('',(12.25,-2.22044604925031E-15,0.));
#546=CARTESIAN_POINT('',(12.25,-2.22044604925031E-15,500.));
#547=CARTESIAN_POINT('Origin',(12.25,1.4,0.));
#548=CARTESIAN_POINT('',(12.25,1.4,-500.));
#549=CARTESIAN_POINT('',(12.25,1.4,-500.));
#550=CARTESIAN_POINT('',(12.25,1.4,500.));
#551=CARTESIAN_POINT('',(12.25,1.4,0.));
#552=CARTESIAN_POINT('',(12.25,1.4,500.));
#553=CARTESIAN_POINT('Origin',(7.05,1.4,0.));
#554=CARTESIAN_POINT('',(7.05,1.4,-500.));
#555=CARTESIAN_POINT('',(7.05,1.4,500.));
#556=CARTESIAN_POINT('Origin',(-6.125,-2.1,-500.));
#557=CARTESIAN_POINT('',(-12.25,1.4,-500.));
#558=CARTESIAN_POINT('',(-7.05,1.4,-500.));
#559=CARTESIAN_POINT('',(-7.05,1.4,-500.));
#560=CARTESIAN_POINT('',(-7.05,-4.1,-500.));
#561=CARTESIAN_POINT('',(-7.05,-4.1,-500.));
#562=CARTESIAN_POINT('',(1.11022302462516E-15,-4.1,-500.));
#563=CARTESIAN_POINT('',(-8.75,-5.6,-500.));
#564=CARTESIAN_POINT('',(8.75,-5.6,-500.));
#565=CARTESIAN_POINT('',(-8.75,-5.55111512312578E-16,-500.));
#566=CARTESIAN_POINT('',(-8.75,0.,-500.));
#567=CARTESIAN_POINT('',(-12.25,-2.22044604925031E-15,-500.));
#568=CARTESIAN_POINT('',(-12.25,-2.22044604925031E-15,-500.));
#569=CARTESIAN_POINT('',(-12.25,1.4,-500.));
#570=CARTESIAN_POINT('Origin',(-7.05,-4.1,0.));
#571=CARTESIAN_POINT('',(-7.05,1.4,500.));
#572=CARTESIAN_POINT('',(-7.05,1.4,0.));
#573=CARTESIAN_POINT('',(-7.05,-4.1,500.));
#574=CARTESIAN_POINT('',(-7.05,-4.1,500.));
#575=CARTESIAN_POINT('',(-7.05,-4.1,0.));
#576=CARTESIAN_POINT('Origin',(1.11022302462516E-15,-4.1,0.));
#577=CARTESIAN_POINT('',(-1.11022302462516E-15,-4.1,500.));
#578=CARTESIAN_POINT('Origin',(-8.75,-5.6,0.));
#579=CARTESIAN_POINT('',(-8.75,-5.6,500.));
#580=CARTESIAN_POINT('',(-8.75,-5.6,500.));
#581=CARTESIAN_POINT('',(-8.75,-5.6,0.));
#582=CARTESIAN_POINT('Origin',(-8.75,-5.55111512312578E-16,0.));
#583=CARTESIAN_POINT('',(-8.75,-5.55111512312578E-16,500.));
#584=CARTESIAN_POINT('',(-8.75,0.,500.));
#585=CARTESIAN_POINT('',(-8.75,-5.55111512312578E-16,0.));
#586=CARTESIAN_POINT('Origin',(-12.25,-2.22044604925031E-15,0.));
#587=CARTESIAN_POINT('',(-12.25,-2.22044604925031E-15,500.));
#588=CARTESIAN_POINT('',(-12.25,-2.22044604925031E-15,500.));
#589=CARTESIAN_POINT('',(-12.25,-2.22044604925031E-15,0.));
#590=CARTESIAN_POINT('Origin',(-12.25,1.4,0.));
#591=CARTESIAN_POINT('',(-12.25,1.4,500.));
#592=CARTESIAN_POINT('',(-12.25,1.4,500.));
#593=CARTESIAN_POINT('',(-12.25,1.4,0.));
#594=CARTESIAN_POINT('Origin',(-7.05,1.4,0.));
#595=CARTESIAN_POINT('',(-7.05,1.4,500.));
#596=CARTESIAN_POINT('Origin',(-6.125,-2.1,500.));
#597=UNCERTAINTY_MEASURE_WITH_UNIT(LENGTH_MEASURE(0.01),#601,
'DISTANCE_ACCURACY_VALUE',
'Maximum model space distance between geometric entities at asserted c
onnectivities');
#598=UNCERTAINTY_MEASURE_WITH_UNIT(LENGTH_MEASURE(0.01),#601,
'DISTANCE_ACCURACY_VALUE',
'Maximum model space distance between geometric entities at asserted c
onnectivities');
#599=(
GEOMETRIC_REPRESENTATION_CONTEXT(3)
GLOBAL_UNCERTAINTY_ASSIGNED_CONTEXT((#597))
GLOBAL_UNIT_ASSIGNED_CONTEXT((#601,#603,#604))
REPRESENTATION_CONTEXT('','3D')
);
#600=(
GEOMETRIC_REPRESENTATION_CONTEXT(3)
GLOBAL_UNCERTAINTY_ASSIGNED_CONTEXT((#598))
GLOBAL_UNIT_ASSIGNED_CONTEXT((#601,#603,#604))
REPRESENTATION_CONTEXT('','3D')
);
#601=(
LENGTH_UNIT()
NAMED_UNIT(*)
SI_UNIT(.MILLI.,.METRE.)
);
#602=(
LENGTH_UNIT()
NAMED_UNIT(*)
SI_UNIT(.CENTI.,.METRE.)
);
#603=(
NAMED_UNIT(*)
PLANE_ANGLE_UNIT()
SI_UNIT($,.RADIAN.)
);
#604=(
NAMED_UNIT(*)
SI_UNIT($,.STERADIAN.)
SOLID_ANGLE_UNIT()
);
#605=SHAPE_DEFINITION_REPRESENTATION(#606,#607);
#606=PRODUCT_DEFINITION_SHAPE('',$,#609);
#607=SHAPE_REPRESENTATION('',(#381),#599);
#608=PRODUCT_DEFINITION_CONTEXT('part definition',#613,'design');
#609=PRODUCT_DEFINITION('359-175-22_23__17-5x13_SLV-001',
'Planar_Kragen_30',#610,#608);
#610=PRODUCT_DEFINITION_FORMATION('',$,#615);
#611=PRODUCT_RELATED_PRODUCT_CATEGORY('Planar_Kragen_30',
'Planar_Kragen_30',(#615));
#612=APPLICATION_PROTOCOL_DEFINITION('international standard',
'automotive_design',2009,#613);
#613=APPLICATION_CONTEXT(
'Core Data for Automotive Mechanical Design Process');
#614=PRODUCT_CONTEXT('part definition',#613,'mechanical');
#615=PRODUCT('359-175-22_23__17-5x13_SLV-001','Planar_Kragen_30',$,(#614));
#616=PRESENTATION_STYLE_ASSIGNMENT((#617));
#617=SURFACE_STYLE_USAGE(.BOTH.,#620);
#618=SURFACE_STYLE_RENDERING_WITH_PROPERTIES($,#624,(#619));
#619=SURFACE_STYLE_TRANSPARENT(0.);
#620=SURFACE_SIDE_STYLE('',(#621,#618));
#621=SURFACE_STYLE_FILL_AREA(#622);
#622=FILL_AREA_STYLE('',(#623));
#623=FILL_AREA_STYLE_COLOUR('',#624);
#624=COLOUR_RGB('',0.749019607843137,0.749019607843137,0.749019607843137);
ENDSEC;
END-ISO-10303-21;
