ISO-10303-21;
HEADER;
/* Generated by software containing ST-Developer
 * from STEP Tools, Inc. (www.steptools.com) 
 */

FILE_DESCRIPTION(
/* description */ (''),
/* implementation_level */ '2;1');

FILE_NAME(
/* name */ 
'P:\\Projekte\\PP1292 Unex Dakota LED Profile\\22-Zeichnungen St\X\FCc
klisten\\Anwender_3D-Daten\\3D_Bow_30.stp',
/* time_stamp */ '2021-03-22T14:38:41+01:00',
/* author */ ('sstotter'),
/* organization */ (''),
/* preprocessor_version */ 'ST-DEVELOPER v18.1',
/* originating_system */ 'Autodesk Inventor 2021',
/* authorisation */ '');

FILE_SCHEMA (('AUTOMOTIVE_DESIGN { 1 0 10303 214 3 1 1 }'));
ENDSEC;

DATA;
#10=MECHANICAL_DESIGN_GEOMETRIC_PRESENTATION_REPRESENTATION('',(#13,#14),
#534);
#11=SHAPE_REPRESENTATION_RELATIONSHIP('SRR','None',#541,#12);
#12=ADVANCED_BREP_SHAPE_REPRESENTATION('',(#15,#16),#533);
#13=STYLED_ITEM('',(#550),#15);
#14=STYLED_ITEM('',(#550),#16);
#15=MANIFOLD_SOLID_BREP('Volumenk\X\F6rper1',#325);
#16=MANIFOLD_SOLID_BREP('Volumenk\X\F6rper1',#326);
#17=CIRCLE('',#343,4.5);
#18=CIRCLE('',#344,4.5);
#19=CYLINDRICAL_SURFACE('',#342,4.5);
#20=FACE_OUTER_BOUND('',#38,.T.);
#21=FACE_OUTER_BOUND('',#39,.T.);
#22=FACE_OUTER_BOUND('',#40,.T.);
#23=FACE_OUTER_BOUND('',#41,.T.);
#24=FACE_OUTER_BOUND('',#42,.T.);
#25=FACE_OUTER_BOUND('',#43,.T.);
#26=FACE_OUTER_BOUND('',#44,.T.);
#27=FACE_OUTER_BOUND('',#45,.T.);
#28=FACE_OUTER_BOUND('',#46,.T.);
#29=FACE_OUTER_BOUND('',#47,.T.);
#30=FACE_OUTER_BOUND('',#48,.T.);
#31=FACE_OUTER_BOUND('',#49,.T.);
#32=FACE_OUTER_BOUND('',#50,.T.);
#33=FACE_OUTER_BOUND('',#51,.T.);
#34=FACE_OUTER_BOUND('',#52,.T.);
#35=FACE_OUTER_BOUND('',#53,.T.);
#36=FACE_OUTER_BOUND('',#54,.T.);
#37=FACE_OUTER_BOUND('',#55,.T.);
#38=EDGE_LOOP('',(#206,#207,#208,#209));
#39=EDGE_LOOP('',(#210,#211,#212,#213));
#40=EDGE_LOOP('',(#214,#215,#216,#217));
#41=EDGE_LOOP('',(#218,#219,#220,#221));
#42=EDGE_LOOP('',(#222,#223,#224,#225));
#43=EDGE_LOOP('',(#226,#227,#228,#229));
#44=EDGE_LOOP('',(#230,#231,#232,#233,#234,#235));
#45=EDGE_LOOP('',(#236,#237,#238,#239,#240,#241));
#46=EDGE_LOOP('',(#242,#243,#244,#245));
#47=EDGE_LOOP('',(#246,#247,#248,#249));
#48=EDGE_LOOP('',(#250,#251,#252,#253));
#49=EDGE_LOOP('',(#254,#255,#256,#257));
#50=EDGE_LOOP('',(#258,#259,#260,#261));
#51=EDGE_LOOP('',(#262,#263,#264,#265));
#52=EDGE_LOOP('',(#266,#267,#268,#269));
#53=EDGE_LOOP('',(#270,#271,#272,#273));
#54=EDGE_LOOP('',(#274,#275,#276,#277,#278,#279,#280,#281));
#55=EDGE_LOOP('',(#282,#283,#284,#285,#286,#287,#288,#289));
#56=LINE('',#446,#96);
#57=LINE('',#448,#97);
#58=LINE('',#450,#98);
#59=LINE('',#451,#99);
#60=LINE('',#454,#100);
#61=LINE('',#456,#101);
#62=LINE('',#457,#102);
#63=LINE('',#462,#103);
#64=LINE('',#466,#104);
#65=LINE('',#468,#105);
#66=LINE('',#469,#106);
#67=LINE('',#472,#107);
#68=LINE('',#474,#108);
#69=LINE('',#475,#109);
#70=LINE('',#477,#110);
#71=LINE('',#478,#111);
#72=LINE('',#484,#112);
#73=LINE('',#486,#113);
#74=LINE('',#488,#114);
#75=LINE('',#489,#115);
#76=LINE('',#492,#116);
#77=LINE('',#494,#117);
#78=LINE('',#495,#118);
#79=LINE('',#498,#119);
#80=LINE('',#500,#120);
#81=LINE('',#501,#121);
#82=LINE('',#504,#122);
#83=LINE('',#506,#123);
#84=LINE('',#507,#124);
#85=LINE('',#510,#125);
#86=LINE('',#512,#126);
#87=LINE('',#513,#127);
#88=LINE('',#516,#128);
#89=LINE('',#518,#129);
#90=LINE('',#519,#130);
#91=LINE('',#522,#131);
#92=LINE('',#524,#132);
#93=LINE('',#525,#133);
#94=LINE('',#527,#134);
#95=LINE('',#528,#135);
#96=VECTOR('',#364,10.);
#97=VECTOR('',#365,10.);
#98=VECTOR('',#366,10.);
#99=VECTOR('',#367,10.);
#100=VECTOR('',#370,10.);
#101=VECTOR('',#371,10.);
#102=VECTOR('',#372,10.);
#103=VECTOR('',#377,10.);
#104=VECTOR('',#382,10.);
#105=VECTOR('',#383,10.);
#106=VECTOR('',#384,10.);
#107=VECTOR('',#387,10.);
#108=VECTOR('',#388,10.);
#109=VECTOR('',#389,10.);
#110=VECTOR('',#392,10.);
#111=VECTOR('',#393,10.);
#112=VECTOR('',#400,10.);
#113=VECTOR('',#401,10.);
#114=VECTOR('',#402,10.);
#115=VECTOR('',#403,10.);
#116=VECTOR('',#406,10.);
#117=VECTOR('',#407,10.);
#118=VECTOR('',#408,10.);
#119=VECTOR('',#411,10.);
#120=VECTOR('',#412,10.);
#121=VECTOR('',#413,10.);
#122=VECTOR('',#416,10.);
#123=VECTOR('',#417,10.);
#124=VECTOR('',#418,10.);
#125=VECTOR('',#421,10.);
#126=VECTOR('',#422,10.);
#127=VECTOR('',#423,10.);
#128=VECTOR('',#426,10.);
#129=VECTOR('',#427,10.);
#130=VECTOR('',#428,10.);
#131=VECTOR('',#431,10.);
#132=VECTOR('',#432,10.);
#133=VECTOR('',#433,10.);
#134=VECTOR('',#436,10.);
#135=VECTOR('',#437,10.);
#136=VERTEX_POINT('',#444);
#137=VERTEX_POINT('',#445);
#138=VERTEX_POINT('',#447);
#139=VERTEX_POINT('',#449);
#140=VERTEX_POINT('',#453);
#141=VERTEX_POINT('',#455);
#142=VERTEX_POINT('',#459);
#143=VERTEX_POINT('',#461);
#144=VERTEX_POINT('',#465);
#145=VERTEX_POINT('',#467);
#146=VERTEX_POINT('',#471);
#147=VERTEX_POINT('',#473);
#148=VERTEX_POINT('',#482);
#149=VERTEX_POINT('',#483);
#150=VERTEX_POINT('',#485);
#151=VERTEX_POINT('',#487);
#152=VERTEX_POINT('',#491);
#153=VERTEX_POINT('',#493);
#154=VERTEX_POINT('',#497);
#155=VERTEX_POINT('',#499);
#156=VERTEX_POINT('',#503);
#157=VERTEX_POINT('',#505);
#158=VERTEX_POINT('',#509);
#159=VERTEX_POINT('',#511);
#160=VERTEX_POINT('',#515);
#161=VERTEX_POINT('',#517);
#162=VERTEX_POINT('',#521);
#163=VERTEX_POINT('',#523);
#164=EDGE_CURVE('',#136,#137,#56,.T.);
#165=EDGE_CURVE('',#136,#138,#57,.T.);
#166=EDGE_CURVE('',#138,#139,#58,.T.);
#167=EDGE_CURVE('',#137,#139,#59,.T.);
#168=EDGE_CURVE('',#140,#136,#60,.T.);
#169=EDGE_CURVE('',#140,#141,#61,.T.);
#170=EDGE_CURVE('',#141,#138,#62,.T.);
#171=EDGE_CURVE('',#142,#140,#17,.T.);
#172=EDGE_CURVE('',#142,#143,#63,.T.);
#173=EDGE_CURVE('',#143,#141,#18,.T.);
#174=EDGE_CURVE('',#144,#137,#64,.T.);
#175=EDGE_CURVE('',#145,#139,#65,.T.);
#176=EDGE_CURVE('',#144,#145,#66,.T.);
#177=EDGE_CURVE('',#146,#144,#67,.T.);
#178=EDGE_CURVE('',#147,#145,#68,.T.);
#179=EDGE_CURVE('',#146,#147,#69,.T.);
#180=EDGE_CURVE('',#142,#146,#70,.T.);
#181=EDGE_CURVE('',#143,#147,#71,.T.);
#182=EDGE_CURVE('',#148,#149,#72,.T.);
#183=EDGE_CURVE('',#148,#150,#73,.T.);
#184=EDGE_CURVE('',#150,#151,#74,.T.);
#185=EDGE_CURVE('',#149,#151,#75,.T.);
#186=EDGE_CURVE('',#152,#148,#76,.T.);
#187=EDGE_CURVE('',#152,#153,#77,.T.);
#188=EDGE_CURVE('',#153,#150,#78,.T.);
#189=EDGE_CURVE('',#154,#152,#79,.T.);
#190=EDGE_CURVE('',#154,#155,#80,.T.);
#191=EDGE_CURVE('',#155,#153,#81,.T.);
#192=EDGE_CURVE('',#156,#149,#82,.T.);
#193=EDGE_CURVE('',#157,#151,#83,.T.);
#194=EDGE_CURVE('',#156,#157,#84,.T.);
#195=EDGE_CURVE('',#158,#156,#85,.T.);
#196=EDGE_CURVE('',#159,#157,#86,.T.);
#197=EDGE_CURVE('',#158,#159,#87,.T.);
#198=EDGE_CURVE('',#160,#158,#88,.T.);
#199=EDGE_CURVE('',#161,#159,#89,.T.);
#200=EDGE_CURVE('',#160,#161,#90,.T.);
#201=EDGE_CURVE('',#162,#160,#91,.T.);
#202=EDGE_CURVE('',#163,#161,#92,.T.);
#203=EDGE_CURVE('',#162,#163,#93,.T.);
#204=EDGE_CURVE('',#154,#162,#94,.T.);
#205=EDGE_CURVE('',#163,#155,#95,.T.);
#206=ORIENTED_EDGE('',*,*,#164,.F.);
#207=ORIENTED_EDGE('',*,*,#165,.T.);
#208=ORIENTED_EDGE('',*,*,#166,.T.);
#209=ORIENTED_EDGE('',*,*,#167,.F.);
#210=ORIENTED_EDGE('',*,*,#168,.F.);
#211=ORIENTED_EDGE('',*,*,#169,.T.);
#212=ORIENTED_EDGE('',*,*,#170,.T.);
#213=ORIENTED_EDGE('',*,*,#165,.F.);
#214=ORIENTED_EDGE('',*,*,#171,.F.);
#215=ORIENTED_EDGE('',*,*,#172,.T.);
#216=ORIENTED_EDGE('',*,*,#173,.T.);
#217=ORIENTED_EDGE('',*,*,#169,.F.);
#218=ORIENTED_EDGE('',*,*,#174,.T.);
#219=ORIENTED_EDGE('',*,*,#167,.T.);
#220=ORIENTED_EDGE('',*,*,#175,.F.);
#221=ORIENTED_EDGE('',*,*,#176,.F.);
#222=ORIENTED_EDGE('',*,*,#177,.T.);
#223=ORIENTED_EDGE('',*,*,#176,.T.);
#224=ORIENTED_EDGE('',*,*,#178,.F.);
#225=ORIENTED_EDGE('',*,*,#179,.F.);
#226=ORIENTED_EDGE('',*,*,#180,.T.);
#227=ORIENTED_EDGE('',*,*,#179,.T.);
#228=ORIENTED_EDGE('',*,*,#181,.F.);
#229=ORIENTED_EDGE('',*,*,#172,.F.);
#230=ORIENTED_EDGE('',*,*,#181,.T.);
#231=ORIENTED_EDGE('',*,*,#178,.T.);
#232=ORIENTED_EDGE('',*,*,#175,.T.);
#233=ORIENTED_EDGE('',*,*,#166,.F.);
#234=ORIENTED_EDGE('',*,*,#170,.F.);
#235=ORIENTED_EDGE('',*,*,#173,.F.);
#236=ORIENTED_EDGE('',*,*,#180,.F.);
#237=ORIENTED_EDGE('',*,*,#171,.T.);
#238=ORIENTED_EDGE('',*,*,#168,.T.);
#239=ORIENTED_EDGE('',*,*,#164,.T.);
#240=ORIENTED_EDGE('',*,*,#174,.F.);
#241=ORIENTED_EDGE('',*,*,#177,.F.);
#242=ORIENTED_EDGE('',*,*,#182,.F.);
#243=ORIENTED_EDGE('',*,*,#183,.T.);
#244=ORIENTED_EDGE('',*,*,#184,.T.);
#245=ORIENTED_EDGE('',*,*,#185,.F.);
#246=ORIENTED_EDGE('',*,*,#186,.F.);
#247=ORIENTED_EDGE('',*,*,#187,.T.);
#248=ORIENTED_EDGE('',*,*,#188,.T.);
#249=ORIENTED_EDGE('',*,*,#183,.F.);
#250=ORIENTED_EDGE('',*,*,#189,.F.);
#251=ORIENTED_EDGE('',*,*,#190,.T.);
#252=ORIENTED_EDGE('',*,*,#191,.T.);
#253=ORIENTED_EDGE('',*,*,#187,.F.);
#254=ORIENTED_EDGE('',*,*,#192,.T.);
#255=ORIENTED_EDGE('',*,*,#185,.T.);
#256=ORIENTED_EDGE('',*,*,#193,.F.);
#257=ORIENTED_EDGE('',*,*,#194,.F.);
#258=ORIENTED_EDGE('',*,*,#195,.T.);
#259=ORIENTED_EDGE('',*,*,#194,.T.);
#260=ORIENTED_EDGE('',*,*,#196,.F.);
#261=ORIENTED_EDGE('',*,*,#197,.F.);
#262=ORIENTED_EDGE('',*,*,#198,.T.);
#263=ORIENTED_EDGE('',*,*,#197,.T.);
#264=ORIENTED_EDGE('',*,*,#199,.F.);
#265=ORIENTED_EDGE('',*,*,#200,.F.);
#266=ORIENTED_EDGE('',*,*,#201,.T.);
#267=ORIENTED_EDGE('',*,*,#200,.T.);
#268=ORIENTED_EDGE('',*,*,#202,.F.);
#269=ORIENTED_EDGE('',*,*,#203,.F.);
#270=ORIENTED_EDGE('',*,*,#204,.T.);
#271=ORIENTED_EDGE('',*,*,#203,.T.);
#272=ORIENTED_EDGE('',*,*,#205,.T.);
#273=ORIENTED_EDGE('',*,*,#190,.F.);
#274=ORIENTED_EDGE('',*,*,#205,.F.);
#275=ORIENTED_EDGE('',*,*,#202,.T.);
#276=ORIENTED_EDGE('',*,*,#199,.T.);
#277=ORIENTED_EDGE('',*,*,#196,.T.);
#278=ORIENTED_EDGE('',*,*,#193,.T.);
#279=ORIENTED_EDGE('',*,*,#184,.F.);
#280=ORIENTED_EDGE('',*,*,#188,.F.);
#281=ORIENTED_EDGE('',*,*,#191,.F.);
#282=ORIENTED_EDGE('',*,*,#204,.F.);
#283=ORIENTED_EDGE('',*,*,#189,.T.);
#284=ORIENTED_EDGE('',*,*,#186,.T.);
#285=ORIENTED_EDGE('',*,*,#182,.T.);
#286=ORIENTED_EDGE('',*,*,#192,.F.);
#287=ORIENTED_EDGE('',*,*,#195,.F.);
#288=ORIENTED_EDGE('',*,*,#198,.F.);
#289=ORIENTED_EDGE('',*,*,#201,.F.);
#290=PLANE('',#340);
#291=PLANE('',#341);
#292=PLANE('',#345);
#293=PLANE('',#346);
#294=PLANE('',#347);
#295=PLANE('',#348);
#296=PLANE('',#349);
#297=PLANE('',#350);
#298=PLANE('',#351);
#299=PLANE('',#352);
#300=PLANE('',#353);
#301=PLANE('',#354);
#302=PLANE('',#355);
#303=PLANE('',#356);
#304=PLANE('',#357);
#305=PLANE('',#358);
#306=PLANE('',#359);
#307=ADVANCED_FACE('',(#20),#290,.F.);
#308=ADVANCED_FACE('',(#21),#291,.F.);
#309=ADVANCED_FACE('',(#22),#19,.T.);
#310=ADVANCED_FACE('',(#23),#292,.T.);
#311=ADVANCED_FACE('',(#24),#293,.T.);
#312=ADVANCED_FACE('',(#25),#294,.T.);
#313=ADVANCED_FACE('',(#26),#295,.T.);
#314=ADVANCED_FACE('',(#27),#296,.F.);
#315=ADVANCED_FACE('',(#28),#297,.F.);
#316=ADVANCED_FACE('',(#29),#298,.F.);
#317=ADVANCED_FACE('',(#30),#299,.F.);
#318=ADVANCED_FACE('',(#31),#300,.T.);
#319=ADVANCED_FACE('',(#32),#301,.T.);
#320=ADVANCED_FACE('',(#33),#302,.T.);
#321=ADVANCED_FACE('',(#34),#303,.T.);
#322=ADVANCED_FACE('',(#35),#304,.T.);
#323=ADVANCED_FACE('',(#36),#305,.T.);
#324=ADVANCED_FACE('',(#37),#306,.F.);
#325=CLOSED_SHELL('',(#307,#308,#309,#310,#311,#312,#313,#314));
#326=CLOSED_SHELL('',(#315,#316,#317,#318,#319,#320,#321,#322,#323,#324));
#327=DERIVED_UNIT_ELEMENT(#329,1.);
#328=DERIVED_UNIT_ELEMENT(#536,3.);
#329=(
MASS_UNIT()
NAMED_UNIT(*)
SI_UNIT($,.GRAM.)
);
#330=DERIVED_UNIT((#327,#328));
#331=MEASURE_REPRESENTATION_ITEM('density measure',
POSITIVE_RATIO_MEASURE(1.),#330);
#332=PROPERTY_DEFINITION_REPRESENTATION(#337,#334);
#333=PROPERTY_DEFINITION_REPRESENTATION(#338,#335);
#334=REPRESENTATION('material name',(#336),#533);
#335=REPRESENTATION('density',(#331),#533);
#336=DESCRIPTIVE_REPRESENTATION_ITEM('Generisch','Generisch');
#337=PROPERTY_DEFINITION('material property','material name',#543);
#338=PROPERTY_DEFINITION('material property','density of part',#543);
#339=AXIS2_PLACEMENT_3D('placement',#442,#360,#361);
#340=AXIS2_PLACEMENT_3D('',#443,#362,#363);
#341=AXIS2_PLACEMENT_3D('',#452,#368,#369);
#342=AXIS2_PLACEMENT_3D('',#458,#373,#374);
#343=AXIS2_PLACEMENT_3D('',#460,#375,#376);
#344=AXIS2_PLACEMENT_3D('',#463,#378,#379);
#345=AXIS2_PLACEMENT_3D('',#464,#380,#381);
#346=AXIS2_PLACEMENT_3D('',#470,#385,#386);
#347=AXIS2_PLACEMENT_3D('',#476,#390,#391);
#348=AXIS2_PLACEMENT_3D('',#479,#394,#395);
#349=AXIS2_PLACEMENT_3D('',#480,#396,#397);
#350=AXIS2_PLACEMENT_3D('',#481,#398,#399);
#351=AXIS2_PLACEMENT_3D('',#490,#404,#405);
#352=AXIS2_PLACEMENT_3D('',#496,#409,#410);
#353=AXIS2_PLACEMENT_3D('',#502,#414,#415);
#354=AXIS2_PLACEMENT_3D('',#508,#419,#420);
#355=AXIS2_PLACEMENT_3D('',#514,#424,#425);
#356=AXIS2_PLACEMENT_3D('',#520,#429,#430);
#357=AXIS2_PLACEMENT_3D('',#526,#434,#435);
#358=AXIS2_PLACEMENT_3D('',#529,#438,#439);
#359=AXIS2_PLACEMENT_3D('',#530,#440,#441);
#360=DIRECTION('axis',(0.,0.,1.));
#361=DIRECTION('refdir',(1.,0.,0.));
#362=DIRECTION('center_axis',(-1.,0.,0.));
#363=DIRECTION('ref_axis',(0.,-1.,0.));
#364=DIRECTION('',(0.,-1.,0.));
#365=DIRECTION('',(0.,0.,1.));
#366=DIRECTION('',(0.,-1.,0.));
#367=DIRECTION('',(0.,0.,1.));
#368=DIRECTION('center_axis',(0.,-1.,0.));
#369=DIRECTION('ref_axis',(1.,0.,0.));
#370=DIRECTION('',(1.,0.,0.));
#371=DIRECTION('',(0.,0.,1.));
#372=DIRECTION('',(1.,0.,0.));
#373=DIRECTION('center_axis',(0.,0.,1.));
#374=DIRECTION('ref_axis',(0.,1.,0.));
#375=DIRECTION('center_axis',(0.,0.,-1.));
#376=DIRECTION('ref_axis',(0.,1.,0.));
#377=DIRECTION('',(0.,0.,1.));
#378=DIRECTION('center_axis',(0.,0.,-1.));
#379=DIRECTION('ref_axis',(0.,1.,0.));
#380=DIRECTION('center_axis',(2.20939905398041E-16,-1.,0.));
#381=DIRECTION('ref_axis',(1.,2.20939905398041E-16,0.));
#382=DIRECTION('',(1.,2.20939905398041E-16,0.));
#383=DIRECTION('',(1.,2.20939905398041E-16,0.));
#384=DIRECTION('',(0.,0.,1.));
#385=DIRECTION('center_axis',(-1.,0.,0.));
#386=DIRECTION('ref_axis',(0.,-1.,0.));
#387=DIRECTION('',(0.,-1.,0.));
#388=DIRECTION('',(0.,-1.,0.));
#389=DIRECTION('',(0.,0.,1.));
#390=DIRECTION('center_axis',(0.,1.,0.));
#391=DIRECTION('ref_axis',(-1.,0.,0.));
#392=DIRECTION('',(-1.,0.,0.));
#393=DIRECTION('',(-1.,0.,0.));
#394=DIRECTION('center_axis',(0.,0.,1.));
#395=DIRECTION('ref_axis',(1.,0.,0.));
#396=DIRECTION('center_axis',(0.,0.,1.));
#397=DIRECTION('ref_axis',(1.,0.,0.));
#398=DIRECTION('center_axis',(-1.,5.7673923357151E-16,0.));
#399=DIRECTION('ref_axis',(-5.7673923357151E-16,-1.,0.));
#400=DIRECTION('',(-5.7673923357151E-16,-1.,0.));
#401=DIRECTION('',(0.,0.,1.));
#402=DIRECTION('',(-5.7673923357151E-16,-1.,0.));
#403=DIRECTION('',(0.,0.,1.));
#404=DIRECTION('center_axis',(-5.55111512312578E-16,-1.,0.));
#405=DIRECTION('ref_axis',(1.,-5.55111512312578E-16,0.));
#406=DIRECTION('',(1.,-5.55111512312578E-16,0.));
#407=DIRECTION('',(0.,0.,1.));
#408=DIRECTION('',(1.,-5.55111512312578E-16,0.));
#409=DIRECTION('center_axis',(1.,0.,0.));
#410=DIRECTION('ref_axis',(0.,1.,0.));
#411=DIRECTION('',(0.,1.,0.));
#412=DIRECTION('',(0.,0.,1.));
#413=DIRECTION('',(0.,1.,0.));
#414=DIRECTION('center_axis',(0.,-1.,0.));
#415=DIRECTION('ref_axis',(1.,0.,0.));
#416=DIRECTION('',(1.,0.,0.));
#417=DIRECTION('',(1.,0.,0.));
#418=DIRECTION('',(0.,0.,1.));
#419=DIRECTION('center_axis',(-1.,-5.7673923357151E-16,0.));
#420=DIRECTION('ref_axis',(5.7673923357151E-16,-1.,0.));
#421=DIRECTION('',(5.7673923357151E-16,-1.,0.));
#422=DIRECTION('',(5.7673923357151E-16,-1.,0.));
#423=DIRECTION('',(0.,0.,1.));
#424=DIRECTION('center_axis',(-5.55111512312578E-16,1.,0.));
#425=DIRECTION('ref_axis',(-1.,-5.55111512312578E-16,0.));
#426=DIRECTION('',(-1.,-5.55111512312578E-16,0.));
#427=DIRECTION('',(-1.,-5.55111512312578E-16,0.));
#428=DIRECTION('',(0.,0.,1.));
#429=DIRECTION('center_axis',(1.,0.,0.));
#430=DIRECTION('ref_axis',(0.,1.,0.));
#431=DIRECTION('',(0.,1.,0.));
#432=DIRECTION('',(0.,1.,0.));
#433=DIRECTION('',(0.,0.,1.));
#434=DIRECTION('center_axis',(-4.874149864208E-16,1.,0.));
#435=DIRECTION('ref_axis',(-1.,-4.874149864208E-16,0.));
#436=DIRECTION('',(-1.,-4.874149864208E-16,0.));
#437=DIRECTION('',(1.,-4.874149864208E-16,0.));
#438=DIRECTION('center_axis',(0.,0.,1.));
#439=DIRECTION('ref_axis',(1.,0.,0.));
#440=DIRECTION('center_axis',(0.,0.,1.));
#441=DIRECTION('ref_axis',(1.,0.,0.));
#442=CARTESIAN_POINT('',(0.,0.,0.));
#443=CARTESIAN_POINT('Origin',(10.05,7.7,0.));
#444=CARTESIAN_POINT('',(10.05,7.7,0.));
#445=CARTESIAN_POINT('',(10.05,6.7,0.));
#446=CARTESIAN_POINT('',(10.05,7.7,0.));
#447=CARTESIAN_POINT('',(10.05,7.7,1000.));
#448=CARTESIAN_POINT('',(10.05,7.7,0.));
#449=CARTESIAN_POINT('',(10.05,6.7,1000.));
#450=CARTESIAN_POINT('',(10.05,7.7,1000.));
#451=CARTESIAN_POINT('',(10.05,6.7,0.));
#452=CARTESIAN_POINT('Origin',(4.5,7.7,0.));
#453=CARTESIAN_POINT('',(4.5,7.7,0.));
#454=CARTESIAN_POINT('',(4.5,7.7,0.));
#455=CARTESIAN_POINT('',(4.5,7.7,1000.));
#456=CARTESIAN_POINT('',(4.5,7.7,0.));
#457=CARTESIAN_POINT('',(4.5,7.7,1000.));
#458=CARTESIAN_POINT('Origin',(-4.44089209850063E-15,7.7,0.));
#459=CARTESIAN_POINT('',(-4.5,7.7,0.));
#460=CARTESIAN_POINT('Origin',(4.44089209850063E-15,7.7,0.));
#461=CARTESIAN_POINT('',(-4.5,7.7,1000.));
#462=CARTESIAN_POINT('',(-4.5,7.7,0.));
#463=CARTESIAN_POINT('Origin',(4.44089209850063E-15,7.7,1000.));
#464=CARTESIAN_POINT('Origin',(-10.05,6.7,0.));
#465=CARTESIAN_POINT('',(-10.05,6.7,0.));
#466=CARTESIAN_POINT('',(-10.05,6.7,0.));
#467=CARTESIAN_POINT('',(-10.05,6.7,1000.));
#468=CARTESIAN_POINT('',(-10.05,6.7,1000.));
#469=CARTESIAN_POINT('',(-10.05,6.7,0.));
#470=CARTESIAN_POINT('Origin',(-10.05,7.7,0.));
#471=CARTESIAN_POINT('',(-10.05,7.7,0.));
#472=CARTESIAN_POINT('',(-10.05,7.7,0.));
#473=CARTESIAN_POINT('',(-10.05,7.7,1000.));
#474=CARTESIAN_POINT('',(-10.05,7.7,1000.));
#475=CARTESIAN_POINT('',(-10.05,7.7,0.));
#476=CARTESIAN_POINT('Origin',(-4.5,7.7,0.));
#477=CARTESIAN_POINT('',(-4.5,7.7,0.));
#478=CARTESIAN_POINT('',(-4.5,7.7,1000.));
#479=CARTESIAN_POINT('Origin',(-5.025,9.45,1000.));
#480=CARTESIAN_POINT('Origin',(-5.025,9.45,0.));
#481=CARTESIAN_POINT('Origin',(12.25,7.7,0.));
#482=CARTESIAN_POINT('',(12.25,7.7,0.));
#483=CARTESIAN_POINT('',(12.25,0.,0.));
#484=CARTESIAN_POINT('',(12.25,7.7,0.));
#485=CARTESIAN_POINT('',(12.25,7.7,1000.));
#486=CARTESIAN_POINT('',(12.25,7.7,0.));
#487=CARTESIAN_POINT('',(12.25,0.,1000.));
#488=CARTESIAN_POINT('',(12.25,7.7,1000.));
#489=CARTESIAN_POINT('',(12.25,0.,0.));
#490=CARTESIAN_POINT('Origin',(10.25,7.7,0.));
#491=CARTESIAN_POINT('',(10.25,7.7,0.));
#492=CARTESIAN_POINT('',(10.25,7.7,0.));
#493=CARTESIAN_POINT('',(10.25,7.7,1000.));
#494=CARTESIAN_POINT('',(10.25,7.7,0.));
#495=CARTESIAN_POINT('',(10.25,7.7,1000.));
#496=CARTESIAN_POINT('Origin',(10.25,1.5,0.));
#497=CARTESIAN_POINT('',(10.25,1.5,0.));
#498=CARTESIAN_POINT('',(10.25,1.5,0.));
#499=CARTESIAN_POINT('',(10.25,1.5,1000.));
#500=CARTESIAN_POINT('',(10.25,1.5,0.));
#501=CARTESIAN_POINT('',(10.25,1.5,1000.));
#502=CARTESIAN_POINT('Origin',(-12.25,0.,0.));
#503=CARTESIAN_POINT('',(-12.25,0.,0.));
#504=CARTESIAN_POINT('',(-12.25,0.,0.));
#505=CARTESIAN_POINT('',(-12.25,0.,1000.));
#506=CARTESIAN_POINT('',(-12.25,0.,1000.));
#507=CARTESIAN_POINT('',(-12.25,0.,0.));
#508=CARTESIAN_POINT('Origin',(-12.25,7.7,0.));
#509=CARTESIAN_POINT('',(-12.25,7.7,0.));
#510=CARTESIAN_POINT('',(-12.25,7.7,0.));
#511=CARTESIAN_POINT('',(-12.25,7.7,1000.));
#512=CARTESIAN_POINT('',(-12.25,7.7,1000.));
#513=CARTESIAN_POINT('',(-12.25,7.7,0.));
#514=CARTESIAN_POINT('Origin',(-10.25,7.7,0.));
#515=CARTESIAN_POINT('',(-10.25,7.7,0.));
#516=CARTESIAN_POINT('',(-10.25,7.7,0.));
#517=CARTESIAN_POINT('',(-10.25,7.7,1000.));
#518=CARTESIAN_POINT('',(-10.25,7.7,1000.));
#519=CARTESIAN_POINT('',(-10.25,7.7,0.));
#520=CARTESIAN_POINT('Origin',(-10.25,1.5,0.));
#521=CARTESIAN_POINT('',(-10.25,1.5,0.));
#522=CARTESIAN_POINT('',(-10.25,1.5,0.));
#523=CARTESIAN_POINT('',(-10.25,1.5,1000.));
#524=CARTESIAN_POINT('',(-10.25,1.5,1000.));
#525=CARTESIAN_POINT('',(-10.25,1.5,0.));
#526=CARTESIAN_POINT('Origin',(-8.26636589424464E-16,1.5,0.));
#527=CARTESIAN_POINT('',(0.,1.5,0.));
#528=CARTESIAN_POINT('',(0.,1.5,1000.));
#529=CARTESIAN_POINT('Origin',(-6.125,3.85,1000.));
#530=CARTESIAN_POINT('Origin',(-6.125,3.85,0.));
#531=UNCERTAINTY_MEASURE_WITH_UNIT(LENGTH_MEASURE(0.01),#535,
'DISTANCE_ACCURACY_VALUE',
'Maximum model space distance between geometric entities at asserted c
onnectivities');
#532=UNCERTAINTY_MEASURE_WITH_UNIT(LENGTH_MEASURE(0.01),#535,
'DISTANCE_ACCURACY_VALUE',
'Maximum model space distance between geometric entities at asserted c
onnectivities');
#533=(
GEOMETRIC_REPRESENTATION_CONTEXT(3)
GLOBAL_UNCERTAINTY_ASSIGNED_CONTEXT((#531))
GLOBAL_UNIT_ASSIGNED_CONTEXT((#535,#537,#538))
REPRESENTATION_CONTEXT('','3D')
);
#534=(
GEOMETRIC_REPRESENTATION_CONTEXT(3)
GLOBAL_UNCERTAINTY_ASSIGNED_CONTEXT((#532))
GLOBAL_UNIT_ASSIGNED_CONTEXT((#535,#537,#538))
REPRESENTATION_CONTEXT('','3D')
);
#535=(
LENGTH_UNIT()
NAMED_UNIT(*)
SI_UNIT(.MILLI.,.METRE.)
);
#536=(
LENGTH_UNIT()
NAMED_UNIT(*)
SI_UNIT(.CENTI.,.METRE.)
);
#537=(
NAMED_UNIT(*)
PLANE_ANGLE_UNIT()
SI_UNIT($,.RADIAN.)
);
#538=(
NAMED_UNIT(*)
SI_UNIT($,.STERADIAN.)
SOLID_ANGLE_UNIT()
);
#539=SHAPE_DEFINITION_REPRESENTATION(#540,#541);
#540=PRODUCT_DEFINITION_SHAPE('',$,#543);
#541=SHAPE_REPRESENTATION('',(#339),#533);
#542=PRODUCT_DEFINITION_CONTEXT('part definition',#547,'design');
#543=PRODUCT_DEFINITION('UNE-024_936-040-080_24-5x12-2','Bow_30',#544,#542);
#544=PRODUCT_DEFINITION_FORMATION('',$,#549);
#545=PRODUCT_RELATED_PRODUCT_CATEGORY('Bow_30','Bow_30',(#549));
#546=APPLICATION_PROTOCOL_DEFINITION('international standard',
'automotive_design',2009,#547);
#547=APPLICATION_CONTEXT(
'Core Data for Automotive Mechanical Design Process');
#548=PRODUCT_CONTEXT('part definition',#547,'mechanical');
#549=PRODUCT('UNE-024_936-040-080_24-5x12-2','Bow_30',$,(#548));
#550=PRESENTATION_STYLE_ASSIGNMENT((#551));
#551=SURFACE_STYLE_USAGE(.BOTH.,#554);
#552=SURFACE_STYLE_RENDERING_WITH_PROPERTIES($,#558,(#553));
#553=SURFACE_STYLE_TRANSPARENT(0.);
#554=SURFACE_SIDE_STYLE('',(#555,#552));
#555=SURFACE_STYLE_FILL_AREA(#556);
#556=FILL_AREA_STYLE('',(#557));
#557=FILL_AREA_STYLE_COLOUR('',#558);
#558=COLOUR_RGB('',0.749019607843137,0.749019607843137,0.749019607843137);
ENDSEC;
END-ISO-10303-21;
