ISO-10303-21;
HEADER;
/* Generated by software containing ST-Developer
 * from STEP Tools, Inc. (www.steptools.com) 
 */

FILE_DESCRIPTION(
/* description */ (''),
/* implementation_level */ '2;1');

FILE_NAME(
/* name */ 
'P:\\Projekte\\PP1292 Unex Dakota LED Profile\\22-Zeichnungen St\X\FCc
klisten\\Anwender_3D-Daten\\3D_Basic_18_Kragen.stp',
/* time_stamp */ '2021-03-22T14:44:59+01:00',
/* author */ ('sstotter'),
/* organization */ (''),
/* preprocessor_version */ 'ST-DEVELOPER v18.1',
/* originating_system */ 'Autodesk Inventor 2021',
/* authorisation */ '');

FILE_SCHEMA (('AUTOMOTIVE_DESIGN { 1 0 10303 214 3 1 1 }'));
ENDSEC;

DATA;
#10=MECHANICAL_DESIGN_GEOMETRIC_PRESENTATION_REPRESENTATION('',(#13,#14),
#598);
#11=SHAPE_REPRESENTATION_RELATIONSHIP('SRR','None',#605,#12);
#12=ADVANCED_BREP_SHAPE_REPRESENTATION('',(#15,#16),#597);
#13=STYLED_ITEM('',(#614),#15);
#14=STYLED_ITEM('',(#614),#16);
#15=MANIFOLD_SOLID_BREP('Volumenk\X\F6rper1',#369);
#16=MANIFOLD_SOLID_BREP('Volumenk\X\F6rper1',#370);
#17=FACE_OUTER_BOUND('',#37,.T.);
#18=FACE_OUTER_BOUND('',#38,.T.);
#19=FACE_OUTER_BOUND('',#39,.T.);
#20=FACE_OUTER_BOUND('',#40,.T.);
#21=FACE_OUTER_BOUND('',#41,.T.);
#22=FACE_OUTER_BOUND('',#42,.T.);
#23=FACE_OUTER_BOUND('',#43,.T.);
#24=FACE_OUTER_BOUND('',#44,.T.);
#25=FACE_OUTER_BOUND('',#45,.T.);
#26=FACE_OUTER_BOUND('',#46,.T.);
#27=FACE_OUTER_BOUND('',#47,.T.);
#28=FACE_OUTER_BOUND('',#48,.T.);
#29=FACE_OUTER_BOUND('',#49,.T.);
#30=FACE_OUTER_BOUND('',#50,.T.);
#31=FACE_OUTER_BOUND('',#51,.T.);
#32=FACE_OUTER_BOUND('',#52,.T.);
#33=FACE_OUTER_BOUND('',#53,.T.);
#34=FACE_OUTER_BOUND('',#54,.T.);
#35=FACE_OUTER_BOUND('',#55,.T.);
#36=FACE_OUTER_BOUND('',#56,.T.);
#37=EDGE_LOOP('',(#233,#234,#235,#236));
#38=EDGE_LOOP('',(#237,#238,#239,#240));
#39=EDGE_LOOP('',(#241,#242,#243,#244));
#40=EDGE_LOOP('',(#245,#246,#247,#248));
#41=EDGE_LOOP('',(#249,#250,#251,#252));
#42=EDGE_LOOP('',(#253,#254,#255,#256));
#43=EDGE_LOOP('',(#257,#258,#259,#260));
#44=EDGE_LOOP('',(#261,#262,#263,#264));
#45=EDGE_LOOP('',(#265,#266,#267,#268));
#46=EDGE_LOOP('',(#269,#270,#271,#272));
#47=EDGE_LOOP('',(#273,#274,#275,#276));
#48=EDGE_LOOP('',(#277,#278,#279,#280));
#49=EDGE_LOOP('',(#281,#282,#283,#284));
#50=EDGE_LOOP('',(#285,#286,#287,#288));
#51=EDGE_LOOP('',(#289,#290,#291,#292));
#52=EDGE_LOOP('',(#293,#294,#295,#296));
#53=EDGE_LOOP('',(#297,#298,#299,#300));
#54=EDGE_LOOP('',(#301,#302,#303,#304));
#55=EDGE_LOOP('',(#305,#306,#307,#308,#309,#310,#311,#312,#313,#314,#315,
#316));
#56=EDGE_LOOP('',(#317,#318,#319,#320,#321,#322,#323,#324,#325,#326,#327,
#328));
#57=LINE('',#498,#105);
#58=LINE('',#500,#106);
#59=LINE('',#502,#107);
#60=LINE('',#503,#108);
#61=LINE('',#507,#109);
#62=LINE('',#509,#110);
#63=LINE('',#511,#111);
#64=LINE('',#512,#112);
#65=LINE('',#514,#113);
#66=LINE('',#515,#114);
#67=LINE('',#517,#115);
#68=LINE('',#518,#116);
#69=LINE('',#524,#117);
#70=LINE('',#526,#118);
#71=LINE('',#528,#119);
#72=LINE('',#529,#120);
#73=LINE('',#532,#121);
#74=LINE('',#534,#122);
#75=LINE('',#535,#123);
#76=LINE('',#538,#124);
#77=LINE('',#540,#125);
#78=LINE('',#541,#126);
#79=LINE('',#544,#127);
#80=LINE('',#546,#128);
#81=LINE('',#547,#129);
#82=LINE('',#550,#130);
#83=LINE('',#552,#131);
#84=LINE('',#553,#132);
#85=LINE('',#556,#133);
#86=LINE('',#558,#134);
#87=LINE('',#559,#135);
#88=LINE('',#562,#136);
#89=LINE('',#564,#137);
#90=LINE('',#565,#138);
#91=LINE('',#568,#139);
#92=LINE('',#570,#140);
#93=LINE('',#571,#141);
#94=LINE('',#574,#142);
#95=LINE('',#576,#143);
#96=LINE('',#577,#144);
#97=LINE('',#580,#145);
#98=LINE('',#582,#146);
#99=LINE('',#583,#147);
#100=LINE('',#586,#148);
#101=LINE('',#588,#149);
#102=LINE('',#589,#150);
#103=LINE('',#591,#151);
#104=LINE('',#592,#152);
#105=VECTOR('',#408,10.);
#106=VECTOR('',#409,10.);
#107=VECTOR('',#410,10.);
#108=VECTOR('',#411,10.);
#109=VECTOR('',#414,10.);
#110=VECTOR('',#415,10.);
#111=VECTOR('',#416,10.);
#112=VECTOR('',#417,10.);
#113=VECTOR('',#420,10.);
#114=VECTOR('',#421,10.);
#115=VECTOR('',#424,10.);
#116=VECTOR('',#425,10.);
#117=VECTOR('',#432,10.);
#118=VECTOR('',#433,10.);
#119=VECTOR('',#434,10.);
#120=VECTOR('',#435,10.);
#121=VECTOR('',#438,10.);
#122=VECTOR('',#439,10.);
#123=VECTOR('',#440,10.);
#124=VECTOR('',#443,10.);
#125=VECTOR('',#444,10.);
#126=VECTOR('',#445,10.);
#127=VECTOR('',#448,10.);
#128=VECTOR('',#449,10.);
#129=VECTOR('',#450,10.);
#130=VECTOR('',#453,10.);
#131=VECTOR('',#454,10.);
#132=VECTOR('',#455,10.);
#133=VECTOR('',#458,10.);
#134=VECTOR('',#459,10.);
#135=VECTOR('',#460,10.);
#136=VECTOR('',#463,10.);
#137=VECTOR('',#464,10.);
#138=VECTOR('',#465,10.);
#139=VECTOR('',#468,10.);
#140=VECTOR('',#469,10.);
#141=VECTOR('',#470,10.);
#142=VECTOR('',#473,10.);
#143=VECTOR('',#474,10.);
#144=VECTOR('',#475,10.);
#145=VECTOR('',#478,10.);
#146=VECTOR('',#479,10.);
#147=VECTOR('',#480,10.);
#148=VECTOR('',#483,10.);
#149=VECTOR('',#484,10.);
#150=VECTOR('',#485,10.);
#151=VECTOR('',#488,10.);
#152=VECTOR('',#489,10.);
#153=VERTEX_POINT('',#496);
#154=VERTEX_POINT('',#497);
#155=VERTEX_POINT('',#499);
#156=VERTEX_POINT('',#501);
#157=VERTEX_POINT('',#505);
#158=VERTEX_POINT('',#506);
#159=VERTEX_POINT('',#508);
#160=VERTEX_POINT('',#510);
#161=VERTEX_POINT('',#522);
#162=VERTEX_POINT('',#523);
#163=VERTEX_POINT('',#525);
#164=VERTEX_POINT('',#527);
#165=VERTEX_POINT('',#531);
#166=VERTEX_POINT('',#533);
#167=VERTEX_POINT('',#537);
#168=VERTEX_POINT('',#539);
#169=VERTEX_POINT('',#543);
#170=VERTEX_POINT('',#545);
#171=VERTEX_POINT('',#549);
#172=VERTEX_POINT('',#551);
#173=VERTEX_POINT('',#555);
#174=VERTEX_POINT('',#557);
#175=VERTEX_POINT('',#561);
#176=VERTEX_POINT('',#563);
#177=VERTEX_POINT('',#567);
#178=VERTEX_POINT('',#569);
#179=VERTEX_POINT('',#573);
#180=VERTEX_POINT('',#575);
#181=VERTEX_POINT('',#579);
#182=VERTEX_POINT('',#581);
#183=VERTEX_POINT('',#585);
#184=VERTEX_POINT('',#587);
#185=EDGE_CURVE('',#153,#154,#57,.T.);
#186=EDGE_CURVE('',#153,#155,#58,.T.);
#187=EDGE_CURVE('',#155,#156,#59,.T.);
#188=EDGE_CURVE('',#154,#156,#60,.T.);
#189=EDGE_CURVE('',#157,#158,#61,.T.);
#190=EDGE_CURVE('',#158,#159,#62,.T.);
#191=EDGE_CURVE('',#160,#159,#63,.T.);
#192=EDGE_CURVE('',#157,#160,#64,.T.);
#193=EDGE_CURVE('',#157,#153,#65,.T.);
#194=EDGE_CURVE('',#160,#155,#66,.T.);
#195=EDGE_CURVE('',#158,#154,#67,.T.);
#196=EDGE_CURVE('',#159,#156,#68,.T.);
#197=EDGE_CURVE('',#161,#162,#69,.T.);
#198=EDGE_CURVE('',#161,#163,#70,.T.);
#199=EDGE_CURVE('',#163,#164,#71,.T.);
#200=EDGE_CURVE('',#162,#164,#72,.T.);
#201=EDGE_CURVE('',#165,#161,#73,.T.);
#202=EDGE_CURVE('',#165,#166,#74,.T.);
#203=EDGE_CURVE('',#166,#163,#75,.T.);
#204=EDGE_CURVE('',#167,#165,#76,.T.);
#205=EDGE_CURVE('',#167,#168,#77,.T.);
#206=EDGE_CURVE('',#168,#166,#78,.T.);
#207=EDGE_CURVE('',#169,#167,#79,.T.);
#208=EDGE_CURVE('',#169,#170,#80,.T.);
#209=EDGE_CURVE('',#170,#168,#81,.T.);
#210=EDGE_CURVE('',#171,#169,#82,.T.);
#211=EDGE_CURVE('',#171,#172,#83,.T.);
#212=EDGE_CURVE('',#172,#170,#84,.T.);
#213=EDGE_CURVE('',#173,#162,#85,.T.);
#214=EDGE_CURVE('',#174,#164,#86,.T.);
#215=EDGE_CURVE('',#173,#174,#87,.T.);
#216=EDGE_CURVE('',#175,#173,#88,.T.);
#217=EDGE_CURVE('',#176,#174,#89,.T.);
#218=EDGE_CURVE('',#175,#176,#90,.T.);
#219=EDGE_CURVE('',#177,#175,#91,.T.);
#220=EDGE_CURVE('',#178,#176,#92,.T.);
#221=EDGE_CURVE('',#177,#178,#93,.T.);
#222=EDGE_CURVE('',#179,#177,#94,.T.);
#223=EDGE_CURVE('',#180,#178,#95,.T.);
#224=EDGE_CURVE('',#179,#180,#96,.T.);
#225=EDGE_CURVE('',#181,#179,#97,.T.);
#226=EDGE_CURVE('',#182,#180,#98,.T.);
#227=EDGE_CURVE('',#181,#182,#99,.T.);
#228=EDGE_CURVE('',#183,#181,#100,.T.);
#229=EDGE_CURVE('',#184,#182,#101,.T.);
#230=EDGE_CURVE('',#183,#184,#102,.T.);
#231=EDGE_CURVE('',#171,#183,#103,.T.);
#232=EDGE_CURVE('',#184,#172,#104,.T.);
#233=ORIENTED_EDGE('',*,*,#185,.F.);
#234=ORIENTED_EDGE('',*,*,#186,.T.);
#235=ORIENTED_EDGE('',*,*,#187,.T.);
#236=ORIENTED_EDGE('',*,*,#188,.F.);
#237=ORIENTED_EDGE('',*,*,#189,.T.);
#238=ORIENTED_EDGE('',*,*,#190,.T.);
#239=ORIENTED_EDGE('',*,*,#191,.F.);
#240=ORIENTED_EDGE('',*,*,#192,.F.);
#241=ORIENTED_EDGE('',*,*,#193,.F.);
#242=ORIENTED_EDGE('',*,*,#192,.T.);
#243=ORIENTED_EDGE('',*,*,#194,.T.);
#244=ORIENTED_EDGE('',*,*,#186,.F.);
#245=ORIENTED_EDGE('',*,*,#195,.T.);
#246=ORIENTED_EDGE('',*,*,#188,.T.);
#247=ORIENTED_EDGE('',*,*,#196,.F.);
#248=ORIENTED_EDGE('',*,*,#190,.F.);
#249=ORIENTED_EDGE('',*,*,#196,.T.);
#250=ORIENTED_EDGE('',*,*,#187,.F.);
#251=ORIENTED_EDGE('',*,*,#194,.F.);
#252=ORIENTED_EDGE('',*,*,#191,.T.);
#253=ORIENTED_EDGE('',*,*,#195,.F.);
#254=ORIENTED_EDGE('',*,*,#189,.F.);
#255=ORIENTED_EDGE('',*,*,#193,.T.);
#256=ORIENTED_EDGE('',*,*,#185,.T.);
#257=ORIENTED_EDGE('',*,*,#197,.F.);
#258=ORIENTED_EDGE('',*,*,#198,.T.);
#259=ORIENTED_EDGE('',*,*,#199,.T.);
#260=ORIENTED_EDGE('',*,*,#200,.F.);
#261=ORIENTED_EDGE('',*,*,#201,.F.);
#262=ORIENTED_EDGE('',*,*,#202,.T.);
#263=ORIENTED_EDGE('',*,*,#203,.T.);
#264=ORIENTED_EDGE('',*,*,#198,.F.);
#265=ORIENTED_EDGE('',*,*,#204,.F.);
#266=ORIENTED_EDGE('',*,*,#205,.T.);
#267=ORIENTED_EDGE('',*,*,#206,.T.);
#268=ORIENTED_EDGE('',*,*,#202,.F.);
#269=ORIENTED_EDGE('',*,*,#207,.F.);
#270=ORIENTED_EDGE('',*,*,#208,.T.);
#271=ORIENTED_EDGE('',*,*,#209,.T.);
#272=ORIENTED_EDGE('',*,*,#205,.F.);
#273=ORIENTED_EDGE('',*,*,#210,.F.);
#274=ORIENTED_EDGE('',*,*,#211,.T.);
#275=ORIENTED_EDGE('',*,*,#212,.T.);
#276=ORIENTED_EDGE('',*,*,#208,.F.);
#277=ORIENTED_EDGE('',*,*,#213,.T.);
#278=ORIENTED_EDGE('',*,*,#200,.T.);
#279=ORIENTED_EDGE('',*,*,#214,.F.);
#280=ORIENTED_EDGE('',*,*,#215,.F.);
#281=ORIENTED_EDGE('',*,*,#216,.T.);
#282=ORIENTED_EDGE('',*,*,#215,.T.);
#283=ORIENTED_EDGE('',*,*,#217,.F.);
#284=ORIENTED_EDGE('',*,*,#218,.F.);
#285=ORIENTED_EDGE('',*,*,#219,.T.);
#286=ORIENTED_EDGE('',*,*,#218,.T.);
#287=ORIENTED_EDGE('',*,*,#220,.F.);
#288=ORIENTED_EDGE('',*,*,#221,.F.);
#289=ORIENTED_EDGE('',*,*,#222,.T.);
#290=ORIENTED_EDGE('',*,*,#221,.T.);
#291=ORIENTED_EDGE('',*,*,#223,.F.);
#292=ORIENTED_EDGE('',*,*,#224,.F.);
#293=ORIENTED_EDGE('',*,*,#225,.T.);
#294=ORIENTED_EDGE('',*,*,#224,.T.);
#295=ORIENTED_EDGE('',*,*,#226,.F.);
#296=ORIENTED_EDGE('',*,*,#227,.F.);
#297=ORIENTED_EDGE('',*,*,#228,.T.);
#298=ORIENTED_EDGE('',*,*,#227,.T.);
#299=ORIENTED_EDGE('',*,*,#229,.F.);
#300=ORIENTED_EDGE('',*,*,#230,.F.);
#301=ORIENTED_EDGE('',*,*,#231,.T.);
#302=ORIENTED_EDGE('',*,*,#230,.T.);
#303=ORIENTED_EDGE('',*,*,#232,.T.);
#304=ORIENTED_EDGE('',*,*,#211,.F.);
#305=ORIENTED_EDGE('',*,*,#232,.F.);
#306=ORIENTED_EDGE('',*,*,#229,.T.);
#307=ORIENTED_EDGE('',*,*,#226,.T.);
#308=ORIENTED_EDGE('',*,*,#223,.T.);
#309=ORIENTED_EDGE('',*,*,#220,.T.);
#310=ORIENTED_EDGE('',*,*,#217,.T.);
#311=ORIENTED_EDGE('',*,*,#214,.T.);
#312=ORIENTED_EDGE('',*,*,#199,.F.);
#313=ORIENTED_EDGE('',*,*,#203,.F.);
#314=ORIENTED_EDGE('',*,*,#206,.F.);
#315=ORIENTED_EDGE('',*,*,#209,.F.);
#316=ORIENTED_EDGE('',*,*,#212,.F.);
#317=ORIENTED_EDGE('',*,*,#231,.F.);
#318=ORIENTED_EDGE('',*,*,#210,.T.);
#319=ORIENTED_EDGE('',*,*,#207,.T.);
#320=ORIENTED_EDGE('',*,*,#204,.T.);
#321=ORIENTED_EDGE('',*,*,#201,.T.);
#322=ORIENTED_EDGE('',*,*,#197,.T.);
#323=ORIENTED_EDGE('',*,*,#213,.F.);
#324=ORIENTED_EDGE('',*,*,#216,.F.);
#325=ORIENTED_EDGE('',*,*,#219,.F.);
#326=ORIENTED_EDGE('',*,*,#222,.F.);
#327=ORIENTED_EDGE('',*,*,#225,.F.);
#328=ORIENTED_EDGE('',*,*,#228,.F.);
#329=PLANE('',#384);
#330=PLANE('',#385);
#331=PLANE('',#386);
#332=PLANE('',#387);
#333=PLANE('',#388);
#334=PLANE('',#389);
#335=PLANE('',#390);
#336=PLANE('',#391);
#337=PLANE('',#392);
#338=PLANE('',#393);
#339=PLANE('',#394);
#340=PLANE('',#395);
#341=PLANE('',#396);
#342=PLANE('',#397);
#343=PLANE('',#398);
#344=PLANE('',#399);
#345=PLANE('',#400);
#346=PLANE('',#401);
#347=PLANE('',#402);
#348=PLANE('',#403);
#349=ADVANCED_FACE('',(#17),#329,.F.);
#350=ADVANCED_FACE('',(#18),#330,.T.);
#351=ADVANCED_FACE('',(#19),#331,.T.);
#352=ADVANCED_FACE('',(#20),#332,.T.);
#353=ADVANCED_FACE('',(#21),#333,.T.);
#354=ADVANCED_FACE('',(#22),#334,.F.);
#355=ADVANCED_FACE('',(#23),#335,.F.);
#356=ADVANCED_FACE('',(#24),#336,.F.);
#357=ADVANCED_FACE('',(#25),#337,.F.);
#358=ADVANCED_FACE('',(#26),#338,.F.);
#359=ADVANCED_FACE('',(#27),#339,.F.);
#360=ADVANCED_FACE('',(#28),#340,.T.);
#361=ADVANCED_FACE('',(#29),#341,.T.);
#362=ADVANCED_FACE('',(#30),#342,.T.);
#363=ADVANCED_FACE('',(#31),#343,.T.);
#364=ADVANCED_FACE('',(#32),#344,.T.);
#365=ADVANCED_FACE('',(#33),#345,.T.);
#366=ADVANCED_FACE('',(#34),#346,.T.);
#367=ADVANCED_FACE('',(#35),#347,.T.);
#368=ADVANCED_FACE('',(#36),#348,.F.);
#369=CLOSED_SHELL('',(#349,#350,#351,#352,#353,#354));
#370=CLOSED_SHELL('',(#355,#356,#357,#358,#359,#360,#361,#362,#363,#364,
#365,#366,#367,#368));
#371=DERIVED_UNIT_ELEMENT(#373,1.);
#372=DERIVED_UNIT_ELEMENT(#600,3.);
#373=(
MASS_UNIT()
NAMED_UNIT(*)
SI_UNIT($,.GRAM.)
);
#374=DERIVED_UNIT((#371,#372));
#375=MEASURE_REPRESENTATION_ITEM('density measure',
POSITIVE_RATIO_MEASURE(1.),#374);
#376=PROPERTY_DEFINITION_REPRESENTATION(#381,#378);
#377=PROPERTY_DEFINITION_REPRESENTATION(#382,#379);
#378=REPRESENTATION('material name',(#380),#597);
#379=REPRESENTATION('density',(#375),#597);
#380=DESCRIPTIVE_REPRESENTATION_ITEM('Generisch','Generisch');
#381=PROPERTY_DEFINITION('material property','material name',#607);
#382=PROPERTY_DEFINITION('material property','density of part',#607);
#383=AXIS2_PLACEMENT_3D('placement',#494,#404,#405);
#384=AXIS2_PLACEMENT_3D('',#495,#406,#407);
#385=AXIS2_PLACEMENT_3D('',#504,#412,#413);
#386=AXIS2_PLACEMENT_3D('',#513,#418,#419);
#387=AXIS2_PLACEMENT_3D('',#516,#422,#423);
#388=AXIS2_PLACEMENT_3D('',#519,#426,#427);
#389=AXIS2_PLACEMENT_3D('',#520,#428,#429);
#390=AXIS2_PLACEMENT_3D('',#521,#430,#431);
#391=AXIS2_PLACEMENT_3D('',#530,#436,#437);
#392=AXIS2_PLACEMENT_3D('',#536,#441,#442);
#393=AXIS2_PLACEMENT_3D('',#542,#446,#447);
#394=AXIS2_PLACEMENT_3D('',#548,#451,#452);
#395=AXIS2_PLACEMENT_3D('',#554,#456,#457);
#396=AXIS2_PLACEMENT_3D('',#560,#461,#462);
#397=AXIS2_PLACEMENT_3D('',#566,#466,#467);
#398=AXIS2_PLACEMENT_3D('',#572,#471,#472);
#399=AXIS2_PLACEMENT_3D('',#578,#476,#477);
#400=AXIS2_PLACEMENT_3D('',#584,#481,#482);
#401=AXIS2_PLACEMENT_3D('',#590,#486,#487);
#402=AXIS2_PLACEMENT_3D('',#593,#490,#491);
#403=AXIS2_PLACEMENT_3D('',#594,#492,#493);
#404=DIRECTION('axis',(0.,0.,1.));
#405=DIRECTION('refdir',(1.,0.,0.));
#406=DIRECTION('center_axis',(-1.,0.,0.));
#407=DIRECTION('ref_axis',(0.,-1.,0.));
#408=DIRECTION('',(0.,-1.,0.));
#409=DIRECTION('',(0.,0.,1.));
#410=DIRECTION('',(0.,-1.,0.));
#411=DIRECTION('',(0.,0.,1.));
#412=DIRECTION('center_axis',(-1.,0.,0.));
#413=DIRECTION('ref_axis',(0.,-1.,0.));
#414=DIRECTION('',(0.,-1.,0.));
#415=DIRECTION('',(0.,0.,1.));
#416=DIRECTION('',(0.,-1.,0.));
#417=DIRECTION('',(0.,0.,1.));
#418=DIRECTION('center_axis',(-6.25477760352201E-16,1.,0.));
#419=DIRECTION('ref_axis',(-1.,-6.25477760352201E-16,0.));
#420=DIRECTION('',(1.,-6.25477760352201E-16,0.));
#421=DIRECTION('',(1.,-6.25477760352201E-16,0.));
#422=DIRECTION('center_axis',(6.25477760352201E-16,-1.,0.));
#423=DIRECTION('ref_axis',(1.,6.25477760352201E-16,0.));
#424=DIRECTION('',(1.,6.25477760352201E-16,0.));
#425=DIRECTION('',(1.,6.25477760352201E-16,0.));
#426=DIRECTION('center_axis',(0.,0.,1.));
#427=DIRECTION('ref_axis',(1.,0.,0.));
#428=DIRECTION('center_axis',(0.,0.,1.));
#429=DIRECTION('ref_axis',(1.,0.,0.));
#430=DIRECTION('center_axis',(-1.,2.46716227694479E-16,0.));
#431=DIRECTION('ref_axis',(-2.46716227694479E-16,-1.,0.));
#432=DIRECTION('',(-2.46716227694479E-16,-1.,0.));
#433=DIRECTION('',(0.,0.,1.));
#434=DIRECTION('',(-2.46716227694479E-16,-1.,0.));
#435=DIRECTION('',(0.,0.,1.));
#436=DIRECTION('center_axis',(-7.40148683083435E-16,1.,0.));
#437=DIRECTION('ref_axis',(-1.,-7.40148683083435E-16,0.));
#438=DIRECTION('',(-1.,-7.40148683083435E-16,0.));
#439=DIRECTION('',(0.,0.,1.));
#440=DIRECTION('',(-1.,-7.40148683083435E-16,0.));
#441=DIRECTION('center_axis',(-1.,0.,0.));
#442=DIRECTION('ref_axis',(0.,-1.,0.));
#443=DIRECTION('',(0.,-1.,0.));
#444=DIRECTION('',(0.,0.,1.));
#445=DIRECTION('',(0.,-1.,0.));
#446=DIRECTION('center_axis',(0.,-1.,0.));
#447=DIRECTION('ref_axis',(1.,0.,0.));
#448=DIRECTION('',(1.,0.,0.));
#449=DIRECTION('',(0.,0.,1.));
#450=DIRECTION('',(1.,0.,0.));
#451=DIRECTION('center_axis',(1.,-5.69994707451592E-16,0.));
#452=DIRECTION('ref_axis',(5.69994707451592E-16,1.,0.));
#453=DIRECTION('',(5.69994707451592E-16,1.,0.));
#454=DIRECTION('',(0.,0.,1.));
#455=DIRECTION('',(5.69994707451592E-16,1.,0.));
#456=DIRECTION('center_axis',(1.22464679914735E-16,-1.,0.));
#457=DIRECTION('ref_axis',(1.,1.22464679914735E-16,0.));
#458=DIRECTION('',(1.,1.22464679914735E-16,0.));
#459=DIRECTION('',(1.,1.22464679914735E-16,0.));
#460=DIRECTION('',(0.,0.,1.));
#461=DIRECTION('center_axis',(-1.,-2.46716227694479E-16,0.));
#462=DIRECTION('ref_axis',(2.46716227694479E-16,-1.,0.));
#463=DIRECTION('',(2.46716227694479E-16,-1.,0.));
#464=DIRECTION('',(2.46716227694479E-16,-1.,0.));
#465=DIRECTION('',(0.,0.,1.));
#466=DIRECTION('center_axis',(-7.40148683083435E-16,-1.,0.));
#467=DIRECTION('ref_axis',(1.,-7.40148683083435E-16,0.));
#468=DIRECTION('',(1.,-7.40148683083435E-16,0.));
#469=DIRECTION('',(1.,-7.40148683083435E-16,0.));
#470=DIRECTION('',(0.,0.,1.));
#471=DIRECTION('center_axis',(-1.,0.,0.));
#472=DIRECTION('ref_axis',(0.,-1.,0.));
#473=DIRECTION('',(0.,-1.,0.));
#474=DIRECTION('',(0.,-1.,0.));
#475=DIRECTION('',(0.,0.,1.));
#476=DIRECTION('center_axis',(0.,1.,0.));
#477=DIRECTION('ref_axis',(-1.,0.,0.));
#478=DIRECTION('',(-1.,0.,0.));
#479=DIRECTION('',(-1.,0.,0.));
#480=DIRECTION('',(0.,0.,1.));
#481=DIRECTION('center_axis',(1.,5.69994707451592E-16,0.));
#482=DIRECTION('ref_axis',(-5.69994707451592E-16,1.,0.));
#483=DIRECTION('',(-5.69994707451592E-16,1.,0.));
#484=DIRECTION('',(-5.69994707451592E-16,1.,0.));
#485=DIRECTION('',(0.,0.,1.));
#486=DIRECTION('center_axis',(-7.60426729195313E-16,1.,0.));
#487=DIRECTION('ref_axis',(-1.,-7.60426729195313E-16,0.));
#488=DIRECTION('',(-1.,-7.60426729195313E-16,0.));
#489=DIRECTION('',(1.,-7.60426729195313E-16,0.));
#490=DIRECTION('center_axis',(0.,0.,1.));
#491=DIRECTION('ref_axis',(1.,0.,0.));
#492=DIRECTION('center_axis',(0.,0.,1.));
#493=DIRECTION('ref_axis',(1.,0.,0.));
#494=CARTESIAN_POINT('',(0.,0.,0.));
#495=CARTESIAN_POINT('Origin',(7.10000000000001,19.,0.));
#496=CARTESIAN_POINT('',(7.10000000000001,19.,0.));
#497=CARTESIAN_POINT('',(7.10000000000001,18.,0.));
#498=CARTESIAN_POINT('',(7.10000000000001,19.,0.));
#499=CARTESIAN_POINT('',(7.10000000000001,19.,1000.));
#500=CARTESIAN_POINT('',(7.10000000000001,19.,0.));
#501=CARTESIAN_POINT('',(7.10000000000001,18.,1000.));
#502=CARTESIAN_POINT('',(7.10000000000001,19.,1000.));
#503=CARTESIAN_POINT('',(7.10000000000001,18.,0.));
#504=CARTESIAN_POINT('Origin',(-7.10000000000001,19.,0.));
#505=CARTESIAN_POINT('',(-7.10000000000001,19.,0.));
#506=CARTESIAN_POINT('',(-7.10000000000001,18.,0.));
#507=CARTESIAN_POINT('',(-7.10000000000001,19.,0.));
#508=CARTESIAN_POINT('',(-7.10000000000001,18.,1000.));
#509=CARTESIAN_POINT('',(-7.10000000000001,18.,0.));
#510=CARTESIAN_POINT('',(-7.10000000000001,19.,1000.));
#511=CARTESIAN_POINT('',(-7.10000000000001,19.,1000.));
#512=CARTESIAN_POINT('',(-7.10000000000001,19.,0.));
#513=CARTESIAN_POINT('Origin',(-1.47104550762833E-14,19.,0.));
#514=CARTESIAN_POINT('',(1.4432899320127E-14,19.,0.));
#515=CARTESIAN_POINT('',(1.4432899320127E-14,19.,1000.));
#516=CARTESIAN_POINT('Origin',(-7.10000000000001,18.,0.));
#517=CARTESIAN_POINT('',(-7.10000000000001,18.,0.));
#518=CARTESIAN_POINT('',(-7.10000000000001,18.,1000.));
#519=CARTESIAN_POINT('Origin',(-3.55000000000001,18.5,1000.));
#520=CARTESIAN_POINT('Origin',(-3.55000000000001,18.5,0.));
#521=CARTESIAN_POINT('Origin',(9.00000000000001,18.,0.));
#522=CARTESIAN_POINT('',(9.00000000000001,18.,0.));
#523=CARTESIAN_POINT('',(9.00000000000001,-1.10218211923262E-15,0.));
#524=CARTESIAN_POINT('',(9.00000000000001,18.,0.));
#525=CARTESIAN_POINT('',(9.00000000000001,18.,1000.));
#526=CARTESIAN_POINT('',(9.00000000000001,18.,0.));
#527=CARTESIAN_POINT('',(9.00000000000001,-1.11022302462516E-15,1000.));
#528=CARTESIAN_POINT('',(9.00000000000001,18.,1000.));
#529=CARTESIAN_POINT('',(9.00000000000001,-1.10218211923262E-15,0.));
#530=CARTESIAN_POINT('Origin',(12.,18.,0.));
#531=CARTESIAN_POINT('',(12.,18.,0.));
#532=CARTESIAN_POINT('',(12.,18.,0.));
#533=CARTESIAN_POINT('',(12.,18.,1000.));
#534=CARTESIAN_POINT('',(12.,18.,0.));
#535=CARTESIAN_POINT('',(12.,18.,1000.));
#536=CARTESIAN_POINT('Origin',(12.,19.,0.));
#537=CARTESIAN_POINT('',(12.,19.,0.));
#538=CARTESIAN_POINT('',(12.,19.,0.));
#539=CARTESIAN_POINT('',(12.,19.,1000.));
#540=CARTESIAN_POINT('',(12.,19.,0.));
#541=CARTESIAN_POINT('',(12.,19.,1000.));
#542=CARTESIAN_POINT('Origin',(7.30000000000001,19.,0.));
#543=CARTESIAN_POINT('',(7.30000000000001,19.,0.));
#544=CARTESIAN_POINT('',(7.30000000000001,19.,0.));
#545=CARTESIAN_POINT('',(7.30000000000001,19.,1000.));
#546=CARTESIAN_POINT('',(7.30000000000001,19.,0.));
#547=CARTESIAN_POINT('',(7.30000000000001,19.,1000.));
#548=CARTESIAN_POINT('Origin',(7.3,1.47,0.));
#549=CARTESIAN_POINT('',(7.3,1.47,0.));
#550=CARTESIAN_POINT('',(7.3,1.47,0.));
#551=CARTESIAN_POINT('',(7.3,1.47,1000.));
#552=CARTESIAN_POINT('',(7.3,1.47,0.));
#553=CARTESIAN_POINT('',(7.3,1.47,1000.));
#554=CARTESIAN_POINT('Origin',(-9.00000000000001,-1.10218211923262E-15,
0.));
#555=CARTESIAN_POINT('',(-9.00000000000001,-1.10218211923262E-15,0.));
#556=CARTESIAN_POINT('',(-9.00000000000001,-1.10218211923262E-15,0.));
#557=CARTESIAN_POINT('',(-9.00000000000001,-1.11022302462516E-15,1000.));
#558=CARTESIAN_POINT('',(-9.00000000000001,-1.10218211923262E-15,1000.));
#559=CARTESIAN_POINT('',(-9.00000000000001,-1.10218211923262E-15,0.));
#560=CARTESIAN_POINT('Origin',(-9.00000000000001,18.,0.));
#561=CARTESIAN_POINT('',(-9.00000000000001,18.,0.));
#562=CARTESIAN_POINT('',(-9.00000000000001,18.,0.));
#563=CARTESIAN_POINT('',(-9.00000000000001,18.,1000.));
#564=CARTESIAN_POINT('',(-9.00000000000001,18.,1000.));
#565=CARTESIAN_POINT('',(-9.00000000000001,18.,0.));
#566=CARTESIAN_POINT('Origin',(-12.,18.,0.));
#567=CARTESIAN_POINT('',(-12.,18.,0.));
#568=CARTESIAN_POINT('',(-12.,18.,0.));
#569=CARTESIAN_POINT('',(-12.,18.,1000.));
#570=CARTESIAN_POINT('',(-12.,18.,1000.));
#571=CARTESIAN_POINT('',(-12.,18.,0.));
#572=CARTESIAN_POINT('Origin',(-12.,19.,0.));
#573=CARTESIAN_POINT('',(-12.,19.,0.));
#574=CARTESIAN_POINT('',(-12.,19.,0.));
#575=CARTESIAN_POINT('',(-12.,19.,1000.));
#576=CARTESIAN_POINT('',(-12.,19.,1000.));
#577=CARTESIAN_POINT('',(-12.,19.,0.));
#578=CARTESIAN_POINT('Origin',(-7.30000000000001,19.,0.));
#579=CARTESIAN_POINT('',(-7.30000000000001,19.,0.));
#580=CARTESIAN_POINT('',(-7.30000000000001,19.,0.));
#581=CARTESIAN_POINT('',(-7.30000000000001,19.,1000.));
#582=CARTESIAN_POINT('',(-7.30000000000001,19.,1000.));
#583=CARTESIAN_POINT('',(-7.30000000000001,19.,0.));
#584=CARTESIAN_POINT('Origin',(-7.3,1.47,0.));
#585=CARTESIAN_POINT('',(-7.3,1.47,0.));
#586=CARTESIAN_POINT('',(-7.3,1.47,0.));
#587=CARTESIAN_POINT('',(-7.3,1.47,1000.));
#588=CARTESIAN_POINT('',(-7.3,1.47,1000.));
#589=CARTESIAN_POINT('',(-7.3,1.47,0.));
#590=CARTESIAN_POINT('Origin',(-1.11022302462516E-15,1.47,0.));
#591=CARTESIAN_POINT('',(-1.11022302462516E-15,1.47,0.));
#592=CARTESIAN_POINT('',(1.11022302462516E-15,1.47,1000.));
#593=CARTESIAN_POINT('Origin',(-6.00000000000001,9.5,1000.));
#594=CARTESIAN_POINT('Origin',(-6.00000000000001,9.5,0.));
#595=UNCERTAINTY_MEASURE_WITH_UNIT(LENGTH_MEASURE(0.01),#599,
'DISTANCE_ACCURACY_VALUE',
'Maximum model space distance between geometric entities at asserted c
onnectivities');
#596=UNCERTAINTY_MEASURE_WITH_UNIT(LENGTH_MEASURE(0.01),#599,
'DISTANCE_ACCURACY_VALUE',
'Maximum model space distance between geometric entities at asserted c
onnectivities');
#597=(
GEOMETRIC_REPRESENTATION_CONTEXT(3)
GLOBAL_UNCERTAINTY_ASSIGNED_CONTEXT((#595))
GLOBAL_UNIT_ASSIGNED_CONTEXT((#599,#601,#602))
REPRESENTATION_CONTEXT('','3D')
);
#598=(
GEOMETRIC_REPRESENTATION_CONTEXT(3)
GLOBAL_UNCERTAINTY_ASSIGNED_CONTEXT((#596))
GLOBAL_UNIT_ASSIGNED_CONTEXT((#599,#601,#602))
REPRESENTATION_CONTEXT('','3D')
);
#599=(
LENGTH_UNIT()
NAMED_UNIT(*)
SI_UNIT(.MILLI.,.METRE.)
);
#600=(
LENGTH_UNIT()
NAMED_UNIT(*)
SI_UNIT(.CENTI.,.METRE.)
);
#601=(
NAMED_UNIT(*)
PLANE_ANGLE_UNIT()
SI_UNIT($,.RADIAN.)
);
#602=(
NAMED_UNIT(*)
SI_UNIT($,.STERADIAN.)
SOLID_ANGLE_UNIT()
);
#603=SHAPE_DEFINITION_REPRESENTATION(#604,#605);
#604=PRODUCT_DEFINITION_SHAPE('',$,#607);
#605=SHAPE_REPRESENTATION('',(#383),#597);
#606=PRODUCT_DEFINITION_CONTEXT('part definition',#611,'design');
#607=PRODUCT_DEFINITION('UNE-015','Basic_18_Kragen',#608,#606);
#608=PRODUCT_DEFINITION_FORMATION('',$,#613);
#609=PRODUCT_RELATED_PRODUCT_CATEGORY('Basic_18_Kragen',
'Basic_18_Kragen',(#613));
#610=APPLICATION_PROTOCOL_DEFINITION('international standard',
'automotive_design',2009,#611);
#611=APPLICATION_CONTEXT(
'Core Data for Automotive Mechanical Design Process');
#612=PRODUCT_CONTEXT('part definition',#611,'mechanical');
#613=PRODUCT('UNE-015','Basic_18_Kragen',$,(#612));
#614=PRESENTATION_STYLE_ASSIGNMENT((#615));
#615=SURFACE_STYLE_USAGE(.BOTH.,#618);
#616=SURFACE_STYLE_RENDERING_WITH_PROPERTIES($,#622,(#617));
#617=SURFACE_STYLE_TRANSPARENT(0.);
#618=SURFACE_SIDE_STYLE('',(#619,#616));
#619=SURFACE_STYLE_FILL_AREA(#620);
#620=FILL_AREA_STYLE('',(#621));
#621=FILL_AREA_STYLE_COLOUR('',#622);
#622=COLOUR_RGB('',0.749019607843137,0.749019607843137,0.749019607843137);
ENDSEC;
END-ISO-10303-21;
