ISO-10303-21;
HEADER;
/* Generated by software containing ST-Developer
 * from STEP Tools, Inc. (www.steptools.com) 
 */

FILE_DESCRIPTION(
/* description */ (''),
/* implementation_level */ '2;1');

FILE_NAME(
/* name */ 
'P:\\Projekte\\PP1292 Unex Dakota LED Profile\\22-Zeichnungen St\X\FCc
klisten\\Anwender_3D-Daten\\3D_Modular_42_Rund.stp',
/* time_stamp */ '2021-03-22T15:29:36+01:00',
/* author */ ('sstotter'),
/* organization */ (''),
/* preprocessor_version */ 'ST-DEVELOPER v18.1',
/* originating_system */ 'Autodesk Inventor 2021',
/* authorisation */ '');

FILE_SCHEMA (('AUTOMOTIVE_DESIGN { 1 0 10303 214 3 1 1 }'));
ENDSEC;

DATA;
#10=MECHANICAL_DESIGN_GEOMETRIC_PRESENTATION_REPRESENTATION('',(#13,#14),
#505);
#11=SHAPE_REPRESENTATION_RELATIONSHIP('SRR','None',#512,#12);
#12=ADVANCED_BREP_SHAPE_REPRESENTATION('',(#15,#16),#504);
#13=STYLED_ITEM('',(#521),#15);
#14=STYLED_ITEM('',(#521),#16);
#15=MANIFOLD_SOLID_BREP('Volumenk\X\F6rper1',#300);
#16=MANIFOLD_SOLID_BREP('Volumenk\X\F6rper1',#301);
#17=PLANE('',#318);
#18=PLANE('',#322);
#19=PLANE('',#326);
#20=PLANE('',#327);
#21=PLANE('',#328);
#22=PLANE('',#329);
#23=PLANE('',#330);
#24=PLANE('',#331);
#25=PLANE('',#332);
#26=PLANE('',#333);
#27=PLANE('',#334);
#28=PLANE('',#335);
#29=PLANE('',#336);
#30=PLANE('',#337);
#31=FACE_OUTER_BOUND('',#48,.T.);
#32=FACE_OUTER_BOUND('',#49,.T.);
#33=FACE_OUTER_BOUND('',#50,.T.);
#34=FACE_OUTER_BOUND('',#51,.T.);
#35=FACE_OUTER_BOUND('',#52,.T.);
#36=FACE_OUTER_BOUND('',#53,.T.);
#37=FACE_OUTER_BOUND('',#54,.T.);
#38=FACE_OUTER_BOUND('',#55,.T.);
#39=FACE_OUTER_BOUND('',#56,.T.);
#40=FACE_OUTER_BOUND('',#57,.T.);
#41=FACE_OUTER_BOUND('',#58,.T.);
#42=FACE_OUTER_BOUND('',#59,.T.);
#43=FACE_OUTER_BOUND('',#60,.T.);
#44=FACE_OUTER_BOUND('',#61,.T.);
#45=FACE_OUTER_BOUND('',#62,.T.);
#46=FACE_OUTER_BOUND('',#63,.T.);
#47=FACE_OUTER_BOUND('',#64,.T.);
#48=EDGE_LOOP('',(#202,#203,#204,#205));
#49=EDGE_LOOP('',(#206,#207,#208,#209));
#50=EDGE_LOOP('',(#210,#211,#212,#213));
#51=EDGE_LOOP('',(#214,#215,#216,#217));
#52=EDGE_LOOP('',(#218,#219,#220,#221));
#53=EDGE_LOOP('',(#222,#223,#224,#225,#226));
#54=EDGE_LOOP('',(#227,#228,#229,#230,#231));
#55=EDGE_LOOP('',(#232,#233,#234,#235));
#56=EDGE_LOOP('',(#236,#237,#238,#239));
#57=EDGE_LOOP('',(#240,#241,#242,#243));
#58=EDGE_LOOP('',(#244,#245,#246,#247));
#59=EDGE_LOOP('',(#248,#249,#250,#251));
#60=EDGE_LOOP('',(#252,#253,#254,#255));
#61=EDGE_LOOP('',(#256,#257,#258,#259));
#62=EDGE_LOOP('',(#260,#261,#262,#263));
#63=EDGE_LOOP('',(#264,#265,#266,#267,#268,#269,#270,#271));
#64=EDGE_LOOP('',(#272,#273,#274,#275,#276,#277,#278,#279));
#65=LINE('',#425,#98);
#66=LINE('',#428,#99);
#67=LINE('',#431,#100);
#68=LINE('',#433,#101);
#69=LINE('',#434,#102);
#70=LINE('',#440,#103);
#71=LINE('',#443,#104);
#72=LINE('',#445,#105);
#73=LINE('',#446,#106);
#74=LINE('',#455,#107);
#75=LINE('',#457,#108);
#76=LINE('',#459,#109);
#77=LINE('',#460,#110);
#78=LINE('',#463,#111);
#79=LINE('',#465,#112);
#80=LINE('',#466,#113);
#81=LINE('',#469,#114);
#82=LINE('',#471,#115);
#83=LINE('',#472,#116);
#84=LINE('',#475,#117);
#85=LINE('',#477,#118);
#86=LINE('',#478,#119);
#87=LINE('',#481,#120);
#88=LINE('',#483,#121);
#89=LINE('',#484,#122);
#90=LINE('',#487,#123);
#91=LINE('',#489,#124);
#92=LINE('',#490,#125);
#93=LINE('',#493,#126);
#94=LINE('',#495,#127);
#95=LINE('',#496,#128);
#96=LINE('',#498,#129);
#97=LINE('',#499,#130);
#98=VECTOR('',#344,10.);
#99=VECTOR('',#347,10.);
#100=VECTOR('',#350,10.);
#101=VECTOR('',#351,10.);
#102=VECTOR('',#352,10.);
#103=VECTOR('',#359,10.);
#104=VECTOR('',#362,10.);
#105=VECTOR('',#363,10.);
#106=VECTOR('',#364,10.);
#107=VECTOR('',#377,10.);
#108=VECTOR('',#378,10.);
#109=VECTOR('',#379,10.);
#110=VECTOR('',#380,10.);
#111=VECTOR('',#383,10.);
#112=VECTOR('',#384,10.);
#113=VECTOR('',#385,10.);
#114=VECTOR('',#388,10.);
#115=VECTOR('',#389,10.);
#116=VECTOR('',#390,10.);
#117=VECTOR('',#393,10.);
#118=VECTOR('',#394,10.);
#119=VECTOR('',#395,10.);
#120=VECTOR('',#398,10.);
#121=VECTOR('',#399,10.);
#122=VECTOR('',#400,10.);
#123=VECTOR('',#403,10.);
#124=VECTOR('',#404,10.);
#125=VECTOR('',#405,10.);
#126=VECTOR('',#408,10.);
#127=VECTOR('',#409,10.);
#128=VECTOR('',#410,10.);
#129=VECTOR('',#413,10.);
#130=VECTOR('',#414,10.);
#131=CIRCLE('',#316,17.5009999755843);
#132=CIRCLE('',#317,17.5009999755843);
#133=CIRCLE('',#320,17.5009999755843);
#134=CIRCLE('',#321,17.5009999755843);
#135=CIRCLE('',#324,20.0009999750012);
#136=CIRCLE('',#325,20.0009999750012);
#137=VERTEX_POINT('',#421);
#138=VERTEX_POINT('',#422);
#139=VERTEX_POINT('',#424);
#140=VERTEX_POINT('',#426);
#141=VERTEX_POINT('',#430);
#142=VERTEX_POINT('',#432);
#143=VERTEX_POINT('',#436);
#144=VERTEX_POINT('',#438);
#145=VERTEX_POINT('',#442);
#146=VERTEX_POINT('',#444);
#147=VERTEX_POINT('',#453);
#148=VERTEX_POINT('',#454);
#149=VERTEX_POINT('',#456);
#150=VERTEX_POINT('',#458);
#151=VERTEX_POINT('',#462);
#152=VERTEX_POINT('',#464);
#153=VERTEX_POINT('',#468);
#154=VERTEX_POINT('',#470);
#155=VERTEX_POINT('',#474);
#156=VERTEX_POINT('',#476);
#157=VERTEX_POINT('',#480);
#158=VERTEX_POINT('',#482);
#159=VERTEX_POINT('',#486);
#160=VERTEX_POINT('',#488);
#161=VERTEX_POINT('',#492);
#162=VERTEX_POINT('',#494);
#163=EDGE_CURVE('',#137,#138,#131,.T.);
#164=EDGE_CURVE('',#137,#139,#65,.T.);
#165=EDGE_CURVE('',#139,#140,#132,.T.);
#166=EDGE_CURVE('',#138,#140,#66,.T.);
#167=EDGE_CURVE('',#141,#137,#67,.T.);
#168=EDGE_CURVE('',#141,#142,#68,.T.);
#169=EDGE_CURVE('',#142,#139,#69,.T.);
#170=EDGE_CURVE('',#143,#138,#133,.T.);
#171=EDGE_CURVE('',#144,#140,#134,.T.);
#172=EDGE_CURVE('',#143,#144,#70,.T.);
#173=EDGE_CURVE('',#145,#143,#71,.T.);
#174=EDGE_CURVE('',#146,#144,#72,.T.);
#175=EDGE_CURVE('',#145,#146,#73,.T.);
#176=EDGE_CURVE('',#141,#145,#135,.T.);
#177=EDGE_CURVE('',#146,#142,#136,.T.);
#178=EDGE_CURVE('',#147,#148,#74,.T.);
#179=EDGE_CURVE('',#147,#149,#75,.T.);
#180=EDGE_CURVE('',#149,#150,#76,.T.);
#181=EDGE_CURVE('',#148,#150,#77,.T.);
#182=EDGE_CURVE('',#151,#147,#78,.T.);
#183=EDGE_CURVE('',#151,#152,#79,.T.);
#184=EDGE_CURVE('',#152,#149,#80,.T.);
#185=EDGE_CURVE('',#153,#151,#81,.T.);
#186=EDGE_CURVE('',#153,#154,#82,.T.);
#187=EDGE_CURVE('',#154,#152,#83,.T.);
#188=EDGE_CURVE('',#155,#148,#84,.T.);
#189=EDGE_CURVE('',#156,#150,#85,.T.);
#190=EDGE_CURVE('',#155,#156,#86,.T.);
#191=EDGE_CURVE('',#157,#155,#87,.T.);
#192=EDGE_CURVE('',#158,#156,#88,.T.);
#193=EDGE_CURVE('',#157,#158,#89,.T.);
#194=EDGE_CURVE('',#159,#157,#90,.T.);
#195=EDGE_CURVE('',#160,#158,#91,.T.);
#196=EDGE_CURVE('',#159,#160,#92,.T.);
#197=EDGE_CURVE('',#161,#159,#93,.T.);
#198=EDGE_CURVE('',#162,#160,#94,.T.);
#199=EDGE_CURVE('',#161,#162,#95,.T.);
#200=EDGE_CURVE('',#161,#153,#96,.T.);
#201=EDGE_CURVE('',#162,#154,#97,.T.);
#202=ORIENTED_EDGE('',*,*,#163,.F.);
#203=ORIENTED_EDGE('',*,*,#164,.T.);
#204=ORIENTED_EDGE('',*,*,#165,.T.);
#205=ORIENTED_EDGE('',*,*,#166,.F.);
#206=ORIENTED_EDGE('',*,*,#167,.F.);
#207=ORIENTED_EDGE('',*,*,#168,.T.);
#208=ORIENTED_EDGE('',*,*,#169,.T.);
#209=ORIENTED_EDGE('',*,*,#164,.F.);
#210=ORIENTED_EDGE('',*,*,#170,.T.);
#211=ORIENTED_EDGE('',*,*,#166,.T.);
#212=ORIENTED_EDGE('',*,*,#171,.F.);
#213=ORIENTED_EDGE('',*,*,#172,.F.);
#214=ORIENTED_EDGE('',*,*,#173,.T.);
#215=ORIENTED_EDGE('',*,*,#172,.T.);
#216=ORIENTED_EDGE('',*,*,#174,.F.);
#217=ORIENTED_EDGE('',*,*,#175,.F.);
#218=ORIENTED_EDGE('',*,*,#176,.T.);
#219=ORIENTED_EDGE('',*,*,#175,.T.);
#220=ORIENTED_EDGE('',*,*,#177,.T.);
#221=ORIENTED_EDGE('',*,*,#168,.F.);
#222=ORIENTED_EDGE('',*,*,#177,.F.);
#223=ORIENTED_EDGE('',*,*,#174,.T.);
#224=ORIENTED_EDGE('',*,*,#171,.T.);
#225=ORIENTED_EDGE('',*,*,#165,.F.);
#226=ORIENTED_EDGE('',*,*,#169,.F.);
#227=ORIENTED_EDGE('',*,*,#176,.F.);
#228=ORIENTED_EDGE('',*,*,#167,.T.);
#229=ORIENTED_EDGE('',*,*,#163,.T.);
#230=ORIENTED_EDGE('',*,*,#170,.F.);
#231=ORIENTED_EDGE('',*,*,#173,.F.);
#232=ORIENTED_EDGE('',*,*,#178,.F.);
#233=ORIENTED_EDGE('',*,*,#179,.T.);
#234=ORIENTED_EDGE('',*,*,#180,.T.);
#235=ORIENTED_EDGE('',*,*,#181,.F.);
#236=ORIENTED_EDGE('',*,*,#182,.F.);
#237=ORIENTED_EDGE('',*,*,#183,.T.);
#238=ORIENTED_EDGE('',*,*,#184,.T.);
#239=ORIENTED_EDGE('',*,*,#179,.F.);
#240=ORIENTED_EDGE('',*,*,#185,.F.);
#241=ORIENTED_EDGE('',*,*,#186,.T.);
#242=ORIENTED_EDGE('',*,*,#187,.T.);
#243=ORIENTED_EDGE('',*,*,#183,.F.);
#244=ORIENTED_EDGE('',*,*,#188,.T.);
#245=ORIENTED_EDGE('',*,*,#181,.T.);
#246=ORIENTED_EDGE('',*,*,#189,.F.);
#247=ORIENTED_EDGE('',*,*,#190,.F.);
#248=ORIENTED_EDGE('',*,*,#191,.T.);
#249=ORIENTED_EDGE('',*,*,#190,.T.);
#250=ORIENTED_EDGE('',*,*,#192,.F.);
#251=ORIENTED_EDGE('',*,*,#193,.F.);
#252=ORIENTED_EDGE('',*,*,#194,.T.);
#253=ORIENTED_EDGE('',*,*,#193,.T.);
#254=ORIENTED_EDGE('',*,*,#195,.F.);
#255=ORIENTED_EDGE('',*,*,#196,.F.);
#256=ORIENTED_EDGE('',*,*,#197,.T.);
#257=ORIENTED_EDGE('',*,*,#196,.T.);
#258=ORIENTED_EDGE('',*,*,#198,.F.);
#259=ORIENTED_EDGE('',*,*,#199,.F.);
#260=ORIENTED_EDGE('',*,*,#200,.F.);
#261=ORIENTED_EDGE('',*,*,#199,.T.);
#262=ORIENTED_EDGE('',*,*,#201,.T.);
#263=ORIENTED_EDGE('',*,*,#186,.F.);
#264=ORIENTED_EDGE('',*,*,#201,.F.);
#265=ORIENTED_EDGE('',*,*,#198,.T.);
#266=ORIENTED_EDGE('',*,*,#195,.T.);
#267=ORIENTED_EDGE('',*,*,#192,.T.);
#268=ORIENTED_EDGE('',*,*,#189,.T.);
#269=ORIENTED_EDGE('',*,*,#180,.F.);
#270=ORIENTED_EDGE('',*,*,#184,.F.);
#271=ORIENTED_EDGE('',*,*,#187,.F.);
#272=ORIENTED_EDGE('',*,*,#188,.F.);
#273=ORIENTED_EDGE('',*,*,#191,.F.);
#274=ORIENTED_EDGE('',*,*,#194,.F.);
#275=ORIENTED_EDGE('',*,*,#197,.F.);
#276=ORIENTED_EDGE('',*,*,#200,.T.);
#277=ORIENTED_EDGE('',*,*,#185,.T.);
#278=ORIENTED_EDGE('',*,*,#182,.T.);
#279=ORIENTED_EDGE('',*,*,#178,.T.);
#280=CYLINDRICAL_SURFACE('',#315,17.5009999755843);
#281=CYLINDRICAL_SURFACE('',#319,17.5009999755843);
#282=CYLINDRICAL_SURFACE('',#323,20.0009999750012);
#283=ADVANCED_FACE('',(#31),#280,.F.);
#284=ADVANCED_FACE('',(#32),#17,.F.);
#285=ADVANCED_FACE('',(#33),#281,.F.);
#286=ADVANCED_FACE('',(#34),#18,.T.);
#287=ADVANCED_FACE('',(#35),#282,.T.);
#288=ADVANCED_FACE('',(#36),#19,.T.);
#289=ADVANCED_FACE('',(#37),#20,.F.);
#290=ADVANCED_FACE('',(#38),#21,.F.);
#291=ADVANCED_FACE('',(#39),#22,.F.);
#292=ADVANCED_FACE('',(#40),#23,.F.);
#293=ADVANCED_FACE('',(#41),#24,.T.);
#294=ADVANCED_FACE('',(#42),#25,.T.);
#295=ADVANCED_FACE('',(#43),#26,.T.);
#296=ADVANCED_FACE('',(#44),#27,.T.);
#297=ADVANCED_FACE('',(#45),#28,.T.);
#298=ADVANCED_FACE('',(#46),#29,.T.);
#299=ADVANCED_FACE('',(#47),#30,.F.);
#300=CLOSED_SHELL('',(#283,#284,#285,#286,#287,#288,#289));
#301=CLOSED_SHELL('',(#290,#291,#292,#293,#294,#295,#296,#297,#298,#299));
#302=DERIVED_UNIT_ELEMENT(#304,1.);
#303=DERIVED_UNIT_ELEMENT(#507,3.);
#304=(
MASS_UNIT()
NAMED_UNIT(*)
SI_UNIT($,.GRAM.)
);
#305=DERIVED_UNIT((#302,#303));
#306=MEASURE_REPRESENTATION_ITEM('density measure',
POSITIVE_RATIO_MEASURE(1.),#305);
#307=PROPERTY_DEFINITION_REPRESENTATION(#312,#309);
#308=PROPERTY_DEFINITION_REPRESENTATION(#313,#310);
#309=REPRESENTATION('material name',(#311),#504);
#310=REPRESENTATION('density',(#306),#504);
#311=DESCRIPTIVE_REPRESENTATION_ITEM('Generisch','Generisch');
#312=PROPERTY_DEFINITION('material property','material name',#514);
#313=PROPERTY_DEFINITION('material property','density of part',#514);
#314=AXIS2_PLACEMENT_3D('placement',#419,#338,#339);
#315=AXIS2_PLACEMENT_3D('',#420,#340,#341);
#316=AXIS2_PLACEMENT_3D('',#423,#342,#343);
#317=AXIS2_PLACEMENT_3D('',#427,#345,#346);
#318=AXIS2_PLACEMENT_3D('',#429,#348,#349);
#319=AXIS2_PLACEMENT_3D('',#435,#353,#354);
#320=AXIS2_PLACEMENT_3D('',#437,#355,#356);
#321=AXIS2_PLACEMENT_3D('',#439,#357,#358);
#322=AXIS2_PLACEMENT_3D('',#441,#360,#361);
#323=AXIS2_PLACEMENT_3D('',#447,#365,#366);
#324=AXIS2_PLACEMENT_3D('',#448,#367,#368);
#325=AXIS2_PLACEMENT_3D('',#449,#369,#370);
#326=AXIS2_PLACEMENT_3D('',#450,#371,#372);
#327=AXIS2_PLACEMENT_3D('',#451,#373,#374);
#328=AXIS2_PLACEMENT_3D('',#452,#375,#376);
#329=AXIS2_PLACEMENT_3D('',#461,#381,#382);
#330=AXIS2_PLACEMENT_3D('',#467,#386,#387);
#331=AXIS2_PLACEMENT_3D('',#473,#391,#392);
#332=AXIS2_PLACEMENT_3D('',#479,#396,#397);
#333=AXIS2_PLACEMENT_3D('',#485,#401,#402);
#334=AXIS2_PLACEMENT_3D('',#491,#406,#407);
#335=AXIS2_PLACEMENT_3D('',#497,#411,#412);
#336=AXIS2_PLACEMENT_3D('',#500,#415,#416);
#337=AXIS2_PLACEMENT_3D('',#501,#417,#418);
#338=DIRECTION('axis',(0.,0.,1.));
#339=DIRECTION('refdir',(1.,0.,0.));
#340=DIRECTION('center_axis',(0.,0.,-1.));
#341=DIRECTION('ref_axis',(8.16259481220053E-6,-0.999999999966686,0.));
#342=DIRECTION('center_axis',(0.,0.,1.));
#343=DIRECTION('ref_axis',(8.16259481220053E-6,-0.999999999966686,0.));
#344=DIRECTION('',(0.,0.,1.));
#345=DIRECTION('center_axis',(0.,0.,1.));
#346=DIRECTION('ref_axis',(8.16259481220053E-6,-0.999999999966686,0.));
#347=DIRECTION('',(0.,0.,1.));
#348=DIRECTION('center_axis',(0.,1.,0.));
#349=DIRECTION('ref_axis',(-1.,0.,0.));
#350=DIRECTION('',(-1.,0.,0.));
#351=DIRECTION('',(0.,0.,1.));
#352=DIRECTION('',(-1.,0.,0.));
#353=DIRECTION('center_axis',(0.,0.,1.));
#354=DIRECTION('ref_axis',(-8.16259481220053E-6,-0.999999999966686,0.));
#355=DIRECTION('center_axis',(0.,0.,-1.));
#356=DIRECTION('ref_axis',(-8.16259481220053E-6,-0.999999999966686,0.));
#357=DIRECTION('center_axis',(0.,0.,-1.));
#358=DIRECTION('ref_axis',(-8.16259481220053E-6,-0.999999999966686,0.));
#359=DIRECTION('',(0.,0.,1.));
#360=DIRECTION('center_axis',(0.,-1.,0.));
#361=DIRECTION('ref_axis',(1.,0.,0.));
#362=DIRECTION('',(1.,0.,0.));
#363=DIRECTION('',(1.,0.,0.));
#364=DIRECTION('',(0.,0.,1.));
#365=DIRECTION('center_axis',(0.,0.,1.));
#366=DIRECTION('ref_axis',(0.,1.,0.));
#367=DIRECTION('center_axis',(0.,0.,1.));
#368=DIRECTION('ref_axis',(0.,1.,0.));
#369=DIRECTION('center_axis',(0.,0.,-1.));
#370=DIRECTION('ref_axis',(0.,1.,0.));
#371=DIRECTION('center_axis',(0.,0.,1.));
#372=DIRECTION('ref_axis',(1.,0.,0.));
#373=DIRECTION('center_axis',(0.,0.,1.));
#374=DIRECTION('ref_axis',(1.,0.,0.));
#375=DIRECTION('center_axis',(-1.,2.11471052309554E-16,0.));
#376=DIRECTION('ref_axis',(-2.11471052309554E-16,-1.,0.));
#377=DIRECTION('',(-2.11471052309554E-16,-1.,0.));
#378=DIRECTION('',(0.,0.,1.));
#379=DIRECTION('',(-2.11471052309554E-16,-1.,0.));
#380=DIRECTION('',(0.,0.,1.));
#381=DIRECTION('center_axis',(0.,-1.,0.));
#382=DIRECTION('ref_axis',(1.,0.,0.));
#383=DIRECTION('',(1.,0.,0.));
#384=DIRECTION('',(0.,0.,1.));
#385=DIRECTION('',(1.,0.,0.));
#386=DIRECTION('center_axis',(1.,0.,0.));
#387=DIRECTION('ref_axis',(0.,1.,0.));
#388=DIRECTION('',(0.,1.,0.));
#389=DIRECTION('',(0.,0.,1.));
#390=DIRECTION('',(0.,1.,0.));
#391=DIRECTION('center_axis',(1.22464679914735E-16,-1.,0.));
#392=DIRECTION('ref_axis',(1.,1.22464679914735E-16,0.));
#393=DIRECTION('',(1.,1.22464679914735E-16,0.));
#394=DIRECTION('',(1.,1.22464679914735E-16,0.));
#395=DIRECTION('',(0.,0.,1.));
#396=DIRECTION('center_axis',(-1.,-2.11471052309554E-16,0.));
#397=DIRECTION('ref_axis',(2.11471052309554E-16,-1.,0.));
#398=DIRECTION('',(2.11471052309554E-16,-1.,0.));
#399=DIRECTION('',(2.11471052309554E-16,-1.,0.));
#400=DIRECTION('',(0.,0.,1.));
#401=DIRECTION('center_axis',(0.,1.,0.));
#402=DIRECTION('ref_axis',(-1.,0.,0.));
#403=DIRECTION('',(-1.,0.,0.));
#404=DIRECTION('',(-1.,0.,0.));
#405=DIRECTION('',(0.,0.,1.));
#406=DIRECTION('center_axis',(1.,0.,0.));
#407=DIRECTION('ref_axis',(0.,1.,0.));
#408=DIRECTION('',(0.,1.,0.));
#409=DIRECTION('',(0.,1.,0.));
#410=DIRECTION('',(0.,0.,1.));
#411=DIRECTION('center_axis',(-5.07530525542929E-16,1.,0.));
#412=DIRECTION('ref_axis',(-1.,-5.07530525542929E-16,0.));
#413=DIRECTION('',(1.,-5.07530525542929E-16,0.));
#414=DIRECTION('',(1.,-5.07530525542929E-16,0.));
#415=DIRECTION('center_axis',(0.,0.,1.));
#416=DIRECTION('ref_axis',(1.,0.,0.));
#417=DIRECTION('center_axis',(0.,0.,1.));
#418=DIRECTION('ref_axis',(1.,0.,0.));
#419=CARTESIAN_POINT('',(0.,0.,0.));
#420=CARTESIAN_POINT('Origin',(0.000142853571609026,42.,0.));
#421=CARTESIAN_POINT('',(17.5,42.2,0.));
#422=CARTESIAN_POINT('',(0.,59.5009999750012,0.));
#423=CARTESIAN_POINT('Origin',(0.000142853571609026,42.,0.));
#424=CARTESIAN_POINT('',(17.5,42.2,1000.));
#425=CARTESIAN_POINT('',(17.5,42.2,0.));
#426=CARTESIAN_POINT('',(0.,59.5009999750012,1000.));
#427=CARTESIAN_POINT('Origin',(0.000142853571609026,42.,1000.));
#428=CARTESIAN_POINT('',(0.,59.5009999750012,0.));
#429=CARTESIAN_POINT('Origin',(20.,42.2,0.));
#430=CARTESIAN_POINT('',(20.,42.2,0.));
#431=CARTESIAN_POINT('',(20.,42.2,0.));
#432=CARTESIAN_POINT('',(20.,42.2,1000.));
#433=CARTESIAN_POINT('',(20.,42.2,0.));
#434=CARTESIAN_POINT('',(20.,42.2,1000.));
#435=CARTESIAN_POINT('Origin',(-0.000142853571609026,42.,0.));
#436=CARTESIAN_POINT('',(-17.5,42.2,0.));
#437=CARTESIAN_POINT('Origin',(-0.000142853571609026,42.,0.));
#438=CARTESIAN_POINT('',(-17.5,42.2,1000.));
#439=CARTESIAN_POINT('Origin',(-0.000142853571609026,42.,1000.));
#440=CARTESIAN_POINT('',(-17.5,42.2,0.));
#441=CARTESIAN_POINT('Origin',(-20.,42.2,0.));
#442=CARTESIAN_POINT('',(-20.,42.2,0.));
#443=CARTESIAN_POINT('',(-20.,42.2,0.));
#444=CARTESIAN_POINT('',(-20.,42.2,1000.));
#445=CARTESIAN_POINT('',(-20.,42.2,1000.));
#446=CARTESIAN_POINT('',(-20.,42.2,0.));
#447=CARTESIAN_POINT('Origin',(0.,42.,0.));
#448=CARTESIAN_POINT('Origin',(0.,42.,0.));
#449=CARTESIAN_POINT('Origin',(0.,42.,1000.));
#450=CARTESIAN_POINT('Origin',(-10.,52.1004999875006,1000.));
#451=CARTESIAN_POINT('Origin',(-10.,52.1004999875006,0.));
#452=CARTESIAN_POINT('Origin',(20.,42.,0.));
#453=CARTESIAN_POINT('',(20.,42.,0.));
#454=CARTESIAN_POINT('',(20.,-2.44929359829471E-15,0.));
#455=CARTESIAN_POINT('',(20.,42.,0.));
#456=CARTESIAN_POINT('',(20.,42.,1000.));
#457=CARTESIAN_POINT('',(20.,42.,0.));
#458=CARTESIAN_POINT('',(20.,-2.44929359829471E-15,1000.));
#459=CARTESIAN_POINT('',(20.,42.,1000.));
#460=CARTESIAN_POINT('',(20.,-2.44929359829471E-15,0.));
#461=CARTESIAN_POINT('Origin',(17.5,42.,0.));
#462=CARTESIAN_POINT('',(17.5,42.,0.));
#463=CARTESIAN_POINT('',(17.5,42.,0.));
#464=CARTESIAN_POINT('',(17.5,42.,1000.));
#465=CARTESIAN_POINT('',(17.5,42.,0.));
#466=CARTESIAN_POINT('',(17.5,42.,1000.));
#467=CARTESIAN_POINT('Origin',(17.5,5.5,0.));
#468=CARTESIAN_POINT('',(17.5,5.5,0.));
#469=CARTESIAN_POINT('',(17.5,5.5,0.));
#470=CARTESIAN_POINT('',(17.5,5.5,1000.));
#471=CARTESIAN_POINT('',(17.5,5.5,0.));
#472=CARTESIAN_POINT('',(17.5,5.5,1000.));
#473=CARTESIAN_POINT('Origin',(-20.,-2.44929359829471E-15,0.));
#474=CARTESIAN_POINT('',(-20.,-2.44929359829471E-15,0.));
#475=CARTESIAN_POINT('',(-20.,-2.44929359829471E-15,0.));
#476=CARTESIAN_POINT('',(-20.,-2.44929359829471E-15,1000.));
#477=CARTESIAN_POINT('',(-20.,-2.44929359829471E-15,1000.));
#478=CARTESIAN_POINT('',(-20.,-2.44929359829471E-15,0.));
#479=CARTESIAN_POINT('Origin',(-20.,42.,0.));
#480=CARTESIAN_POINT('',(-20.,42.,0.));
#481=CARTESIAN_POINT('',(-20.,42.,0.));
#482=CARTESIAN_POINT('',(-20.,42.,1000.));
#483=CARTESIAN_POINT('',(-20.,42.,1000.));
#484=CARTESIAN_POINT('',(-20.,42.,0.));
#485=CARTESIAN_POINT('Origin',(-17.5,42.,0.));
#486=CARTESIAN_POINT('',(-17.5,42.,0.));
#487=CARTESIAN_POINT('',(-17.5,42.,0.));
#488=CARTESIAN_POINT('',(-17.5,42.,1000.));
#489=CARTESIAN_POINT('',(-17.5,42.,1000.));
#490=CARTESIAN_POINT('',(-17.5,42.,0.));
#491=CARTESIAN_POINT('Origin',(-17.5,5.5,0.));
#492=CARTESIAN_POINT('',(-17.5,5.5,0.));
#493=CARTESIAN_POINT('',(-17.5,5.5,0.));
#494=CARTESIAN_POINT('',(-17.5,5.5,1000.));
#495=CARTESIAN_POINT('',(-17.5,5.5,1000.));
#496=CARTESIAN_POINT('',(-17.5,5.5,0.));
#497=CARTESIAN_POINT('Origin',(8.0336231790106E-32,5.50000000000001,0.));
#498=CARTESIAN_POINT('',(0.,5.50000000000001,0.));
#499=CARTESIAN_POINT('',(0.,5.50000000000001,1000.));
#500=CARTESIAN_POINT('Origin',(-10.,21.,1000.));
#501=CARTESIAN_POINT('Origin',(-10.,21.,0.));
#502=UNCERTAINTY_MEASURE_WITH_UNIT(LENGTH_MEASURE(0.01),#506,
'DISTANCE_ACCURACY_VALUE',
'Maximum model space distance between geometric entities at asserted c
onnectivities');
#503=UNCERTAINTY_MEASURE_WITH_UNIT(LENGTH_MEASURE(0.01),#506,
'DISTANCE_ACCURACY_VALUE',
'Maximum model space distance between geometric entities at asserted c
onnectivities');
#504=(
GEOMETRIC_REPRESENTATION_CONTEXT(3)
GLOBAL_UNCERTAINTY_ASSIGNED_CONTEXT((#502))
GLOBAL_UNIT_ASSIGNED_CONTEXT((#506,#508,#509))
REPRESENTATION_CONTEXT('','3D')
);
#505=(
GEOMETRIC_REPRESENTATION_CONTEXT(3)
GLOBAL_UNCERTAINTY_ASSIGNED_CONTEXT((#503))
GLOBAL_UNIT_ASSIGNED_CONTEXT((#506,#508,#509))
REPRESENTATION_CONTEXT('','3D')
);
#506=(
LENGTH_UNIT()
NAMED_UNIT(*)
SI_UNIT(.MILLI.,.METRE.)
);
#507=(
LENGTH_UNIT()
NAMED_UNIT(*)
SI_UNIT(.CENTI.,.METRE.)
);
#508=(
NAMED_UNIT(*)
PLANE_ANGLE_UNIT()
SI_UNIT($,.RADIAN.)
);
#509=(
NAMED_UNIT(*)
SI_UNIT($,.STERADIAN.)
SOLID_ANGLE_UNIT()
);
#510=SHAPE_DEFINITION_REPRESENTATION(#511,#512);
#511=PRODUCT_DEFINITION_SHAPE('',$,#514);
#512=SHAPE_REPRESENTATION('',(#314),#504);
#513=PRODUCT_DEFINITION_CONTEXT('part definition',#518,'design');
#514=PRODUCT_DEFINITION('UNE-021_936-040-014_40x62','Modular_42_Rund',#515,
#513);
#515=PRODUCT_DEFINITION_FORMATION('',$,#520);
#516=PRODUCT_RELATED_PRODUCT_CATEGORY('Modular_42_Rund',
'Modular_42_Rund',(#520));
#517=APPLICATION_PROTOCOL_DEFINITION('international standard',
'automotive_design',2009,#518);
#518=APPLICATION_CONTEXT(
'Core Data for Automotive Mechanical Design Process');
#519=PRODUCT_CONTEXT('part definition',#518,'mechanical');
#520=PRODUCT('UNE-021_936-040-014_40x62','Modular_42_Rund',$,(#519));
#521=PRESENTATION_STYLE_ASSIGNMENT((#522));
#522=SURFACE_STYLE_USAGE(.BOTH.,#525);
#523=SURFACE_STYLE_RENDERING_WITH_PROPERTIES($,#529,(#524));
#524=SURFACE_STYLE_TRANSPARENT(0.);
#525=SURFACE_SIDE_STYLE('',(#526,#523));
#526=SURFACE_STYLE_FILL_AREA(#527);
#527=FILL_AREA_STYLE('',(#528));
#528=FILL_AREA_STYLE_COLOUR('',#529);
#529=COLOUR_RGB('',0.749019607843137,0.749019607843137,0.749019607843137);
ENDSEC;
END-ISO-10303-21;
