ISO-10303-21;
HEADER;
/* Generated by software containing ST-Developer
 * from STEP Tools, Inc. (www.steptools.com) 
 */

FILE_DESCRIPTION(
/* description */ (''),
/* implementation_level */ '2;1');

FILE_NAME(
/* name */ 
'P:\\Projekte\\PP1292 Unex Dakota LED Profile\\22-Zeichnungen St\X\FCc
klisten\\Anwender_3D-Daten\\3D_Tube_26_30.stp',
/* time_stamp */ '2021-03-22T16:13:25+01:00',
/* author */ ('sstotter'),
/* organization */ (''),
/* preprocessor_version */ 'ST-DEVELOPER v18.1',
/* originating_system */ 'Autodesk Inventor 2021',
/* authorisation */ '');

FILE_SCHEMA (('AUTOMOTIVE_DESIGN { 1 0 10303 214 3 1 1 }'));
ENDSEC;

DATA;
#10=MECHANICAL_DESIGN_GEOMETRIC_PRESENTATION_REPRESENTATION('',(#13,#14,
#15),#693);
#11=SHAPE_REPRESENTATION_RELATIONSHIP('SRR','None',#700,#12);
#12=ADVANCED_BREP_SHAPE_REPRESENTATION('',(#16,#17,#18),#692);
#13=STYLED_ITEM('',(#709),#16);
#14=STYLED_ITEM('',(#709),#17);
#15=STYLED_ITEM('',(#709),#18);
#16=MANIFOLD_SOLID_BREP('Volumenk\X\F6rper1',#411);
#17=MANIFOLD_SOLID_BREP('Volumenk\X\F6rper1',#412);
#18=MANIFOLD_SOLID_BREP('Volumenk\X\F6rper1',#413);
#19=PLANE('',#430);
#20=PLANE('',#431);
#21=PLANE('',#432);
#22=PLANE('',#436);
#23=PLANE('',#437);
#24=PLANE('',#438);
#25=PLANE('',#439);
#26=PLANE('',#440);
#27=PLANE('',#444);
#28=PLANE('',#445);
#29=PLANE('',#446);
#30=PLANE('',#447);
#31=PLANE('',#448);
#32=PLANE('',#449);
#33=PLANE('',#450);
#34=PLANE('',#451);
#35=PLANE('',#455);
#36=PLANE('',#459);
#37=PLANE('',#460);
#38=FACE_OUTER_BOUND('',#62,.T.);
#39=FACE_OUTER_BOUND('',#63,.T.);
#40=FACE_OUTER_BOUND('',#64,.T.);
#41=FACE_OUTER_BOUND('',#65,.T.);
#42=FACE_OUTER_BOUND('',#66,.T.);
#43=FACE_OUTER_BOUND('',#67,.T.);
#44=FACE_OUTER_BOUND('',#68,.T.);
#45=FACE_OUTER_BOUND('',#69,.T.);
#46=FACE_OUTER_BOUND('',#70,.T.);
#47=FACE_OUTER_BOUND('',#71,.T.);
#48=FACE_OUTER_BOUND('',#72,.T.);
#49=FACE_OUTER_BOUND('',#73,.T.);
#50=FACE_OUTER_BOUND('',#74,.T.);
#51=FACE_OUTER_BOUND('',#75,.T.);
#52=FACE_OUTER_BOUND('',#76,.T.);
#53=FACE_OUTER_BOUND('',#77,.T.);
#54=FACE_OUTER_BOUND('',#78,.T.);
#55=FACE_OUTER_BOUND('',#79,.T.);
#56=FACE_OUTER_BOUND('',#80,.T.);
#57=FACE_OUTER_BOUND('',#81,.T.);
#58=FACE_OUTER_BOUND('',#82,.T.);
#59=FACE_OUTER_BOUND('',#83,.T.);
#60=FACE_OUTER_BOUND('',#84,.T.);
#61=FACE_OUTER_BOUND('',#85,.T.);
#62=EDGE_LOOP('',(#274,#275,#276,#277));
#63=EDGE_LOOP('',(#278,#279,#280,#281));
#64=EDGE_LOOP('',(#282,#283,#284,#285));
#65=EDGE_LOOP('',(#286,#287,#288,#289));
#66=EDGE_LOOP('',(#290,#291,#292,#293));
#67=EDGE_LOOP('',(#294,#295,#296,#297));
#68=EDGE_LOOP('',(#298,#299,#300,#301));
#69=EDGE_LOOP('',(#302,#303,#304,#305));
#70=EDGE_LOOP('',(#306,#307,#308,#309,#310,#311,#312,#313));
#71=EDGE_LOOP('',(#314,#315,#316,#317,#318,#319,#320,#321));
#72=EDGE_LOOP('',(#322,#323,#324,#325));
#73=EDGE_LOOP('',(#326,#327,#328,#329));
#74=EDGE_LOOP('',(#330,#331,#332,#333));
#75=EDGE_LOOP('',(#334,#335,#336,#337));
#76=EDGE_LOOP('',(#338,#339,#340,#341));
#77=EDGE_LOOP('',(#342,#343,#344,#345));
#78=EDGE_LOOP('',(#346,#347,#348,#349,#350,#351));
#79=EDGE_LOOP('',(#352,#353,#354,#355,#356,#357));
#80=EDGE_LOOP('',(#358,#359,#360,#361));
#81=EDGE_LOOP('',(#362,#363,#364,#365));
#82=EDGE_LOOP('',(#366,#367,#368,#369));
#83=EDGE_LOOP('',(#370,#371,#372,#373));
#84=EDGE_LOOP('',(#374,#375,#376,#377));
#85=EDGE_LOOP('',(#378,#379,#380,#381));
#86=LINE('',#581,#130);
#87=LINE('',#584,#131);
#88=LINE('',#587,#132);
#89=LINE('',#589,#133);
#90=LINE('',#590,#134);
#91=LINE('',#593,#135);
#92=LINE('',#595,#136);
#93=LINE('',#596,#137);
#94=LINE('',#599,#138);
#95=LINE('',#601,#139);
#96=LINE('',#602,#140);
#97=LINE('',#608,#141);
#98=LINE('',#611,#142);
#99=LINE('',#613,#143);
#100=LINE('',#614,#144);
#101=LINE('',#617,#145);
#102=LINE('',#619,#146);
#103=LINE('',#620,#147);
#104=LINE('',#622,#148);
#105=LINE('',#623,#149);
#106=LINE('',#631,#150);
#107=LINE('',#634,#151);
#108=LINE('',#637,#152);
#109=LINE('',#639,#153);
#110=LINE('',#640,#154);
#111=LINE('',#643,#155);
#112=LINE('',#645,#156);
#113=LINE('',#646,#157);
#114=LINE('',#649,#158);
#115=LINE('',#651,#159);
#116=LINE('',#652,#160);
#117=LINE('',#655,#161);
#118=LINE('',#657,#162);
#119=LINE('',#658,#163);
#120=LINE('',#660,#164);
#121=LINE('',#661,#165);
#122=LINE('',#667,#166);
#123=LINE('',#669,#167);
#124=LINE('',#671,#168);
#125=LINE('',#672,#169);
#126=LINE('',#678,#170);
#127=LINE('',#681,#171);
#128=LINE('',#683,#172);
#129=LINE('',#684,#173);
#130=VECTOR('',#467,10.);
#131=VECTOR('',#470,10.);
#132=VECTOR('',#473,10.);
#133=VECTOR('',#474,10.);
#134=VECTOR('',#475,10.);
#135=VECTOR('',#478,10.);
#136=VECTOR('',#479,10.);
#137=VECTOR('',#480,10.);
#138=VECTOR('',#483,10.);
#139=VECTOR('',#484,10.);
#140=VECTOR('',#485,10.);
#141=VECTOR('',#492,10.);
#142=VECTOR('',#495,10.);
#143=VECTOR('',#496,10.);
#144=VECTOR('',#497,10.);
#145=VECTOR('',#500,10.);
#146=VECTOR('',#501,10.);
#147=VECTOR('',#502,10.);
#148=VECTOR('',#505,10.);
#149=VECTOR('',#506,10.);
#150=VECTOR('',#515,10.);
#151=VECTOR('',#518,10.);
#152=VECTOR('',#521,10.);
#153=VECTOR('',#522,10.);
#154=VECTOR('',#523,10.);
#155=VECTOR('',#526,10.);
#156=VECTOR('',#527,10.);
#157=VECTOR('',#528,10.);
#158=VECTOR('',#531,10.);
#159=VECTOR('',#532,10.);
#160=VECTOR('',#533,10.);
#161=VECTOR('',#536,10.);
#162=VECTOR('',#537,10.);
#163=VECTOR('',#538,10.);
#164=VECTOR('',#541,10.);
#165=VECTOR('',#542,10.);
#166=VECTOR('',#549,10.);
#167=VECTOR('',#550,10.);
#168=VECTOR('',#551,10.);
#169=VECTOR('',#552,10.);
#170=VECTOR('',#559,10.);
#171=VECTOR('',#562,10.);
#172=VECTOR('',#563,10.);
#173=VECTOR('',#564,10.);
#174=CIRCLE('',#428,13.);
#175=CIRCLE('',#429,13.);
#176=CIRCLE('',#434,13.);
#177=CIRCLE('',#435,13.);
#178=CIRCLE('',#442,4.5);
#179=CIRCLE('',#443,4.5);
#180=CIRCLE('',#453,13.);
#181=CIRCLE('',#454,13.);
#182=CIRCLE('',#457,12.);
#183=CIRCLE('',#458,12.);
#184=VERTEX_POINT('',#577);
#185=VERTEX_POINT('',#578);
#186=VERTEX_POINT('',#580);
#187=VERTEX_POINT('',#582);
#188=VERTEX_POINT('',#586);
#189=VERTEX_POINT('',#588);
#190=VERTEX_POINT('',#592);
#191=VERTEX_POINT('',#594);
#192=VERTEX_POINT('',#598);
#193=VERTEX_POINT('',#600);
#194=VERTEX_POINT('',#604);
#195=VERTEX_POINT('',#606);
#196=VERTEX_POINT('',#610);
#197=VERTEX_POINT('',#612);
#198=VERTEX_POINT('',#616);
#199=VERTEX_POINT('',#618);
#200=VERTEX_POINT('',#627);
#201=VERTEX_POINT('',#628);
#202=VERTEX_POINT('',#630);
#203=VERTEX_POINT('',#632);
#204=VERTEX_POINT('',#636);
#205=VERTEX_POINT('',#638);
#206=VERTEX_POINT('',#642);
#207=VERTEX_POINT('',#644);
#208=VERTEX_POINT('',#648);
#209=VERTEX_POINT('',#650);
#210=VERTEX_POINT('',#654);
#211=VERTEX_POINT('',#656);
#212=VERTEX_POINT('',#665);
#213=VERTEX_POINT('',#666);
#214=VERTEX_POINT('',#668);
#215=VERTEX_POINT('',#670);
#216=VERTEX_POINT('',#674);
#217=VERTEX_POINT('',#676);
#218=VERTEX_POINT('',#680);
#219=VERTEX_POINT('',#682);
#220=EDGE_CURVE('',#184,#185,#174,.T.);
#221=EDGE_CURVE('',#185,#186,#86,.T.);
#222=EDGE_CURVE('',#187,#186,#175,.T.);
#223=EDGE_CURVE('',#184,#187,#87,.T.);
#224=EDGE_CURVE('',#188,#184,#88,.T.);
#225=EDGE_CURVE('',#189,#187,#89,.T.);
#226=EDGE_CURVE('',#188,#189,#90,.T.);
#227=EDGE_CURVE('',#190,#188,#91,.T.);
#228=EDGE_CURVE('',#191,#189,#92,.T.);
#229=EDGE_CURVE('',#190,#191,#93,.T.);
#230=EDGE_CURVE('',#192,#190,#94,.T.);
#231=EDGE_CURVE('',#193,#191,#95,.T.);
#232=EDGE_CURVE('',#192,#193,#96,.T.);
#233=EDGE_CURVE('',#194,#192,#176,.T.);
#234=EDGE_CURVE('',#195,#193,#177,.T.);
#235=EDGE_CURVE('',#194,#195,#97,.T.);
#236=EDGE_CURVE('',#196,#194,#98,.T.);
#237=EDGE_CURVE('',#197,#195,#99,.T.);
#238=EDGE_CURVE('',#196,#197,#100,.T.);
#239=EDGE_CURVE('',#198,#196,#101,.T.);
#240=EDGE_CURVE('',#199,#197,#102,.T.);
#241=EDGE_CURVE('',#198,#199,#103,.T.);
#242=EDGE_CURVE('',#185,#198,#104,.T.);
#243=EDGE_CURVE('',#186,#199,#105,.T.);
#244=EDGE_CURVE('',#200,#201,#178,.T.);
#245=EDGE_CURVE('',#201,#202,#106,.T.);
#246=EDGE_CURVE('',#203,#202,#179,.T.);
#247=EDGE_CURVE('',#200,#203,#107,.T.);
#248=EDGE_CURVE('',#204,#200,#108,.T.);
#249=EDGE_CURVE('',#205,#203,#109,.T.);
#250=EDGE_CURVE('',#204,#205,#110,.T.);
#251=EDGE_CURVE('',#206,#204,#111,.T.);
#252=EDGE_CURVE('',#207,#205,#112,.T.);
#253=EDGE_CURVE('',#206,#207,#113,.T.);
#254=EDGE_CURVE('',#208,#206,#114,.T.);
#255=EDGE_CURVE('',#209,#207,#115,.T.);
#256=EDGE_CURVE('',#208,#209,#116,.T.);
#257=EDGE_CURVE('',#210,#208,#117,.T.);
#258=EDGE_CURVE('',#211,#209,#118,.T.);
#259=EDGE_CURVE('',#210,#211,#119,.T.);
#260=EDGE_CURVE('',#201,#210,#120,.T.);
#261=EDGE_CURVE('',#202,#211,#121,.T.);
#262=EDGE_CURVE('',#212,#213,#122,.T.);
#263=EDGE_CURVE('',#213,#214,#123,.T.);
#264=EDGE_CURVE('',#215,#214,#124,.T.);
#265=EDGE_CURVE('',#212,#215,#125,.T.);
#266=EDGE_CURVE('',#216,#212,#180,.T.);
#267=EDGE_CURVE('',#217,#215,#181,.T.);
#268=EDGE_CURVE('',#216,#217,#126,.T.);
#269=EDGE_CURVE('',#218,#216,#127,.T.);
#270=EDGE_CURVE('',#219,#217,#128,.T.);
#271=EDGE_CURVE('',#218,#219,#129,.T.);
#272=EDGE_CURVE('',#213,#218,#182,.T.);
#273=EDGE_CURVE('',#214,#219,#183,.T.);
#274=ORIENTED_EDGE('',*,*,#220,.T.);
#275=ORIENTED_EDGE('',*,*,#221,.T.);
#276=ORIENTED_EDGE('',*,*,#222,.F.);
#277=ORIENTED_EDGE('',*,*,#223,.F.);
#278=ORIENTED_EDGE('',*,*,#224,.T.);
#279=ORIENTED_EDGE('',*,*,#223,.T.);
#280=ORIENTED_EDGE('',*,*,#225,.F.);
#281=ORIENTED_EDGE('',*,*,#226,.F.);
#282=ORIENTED_EDGE('',*,*,#227,.T.);
#283=ORIENTED_EDGE('',*,*,#226,.T.);
#284=ORIENTED_EDGE('',*,*,#228,.F.);
#285=ORIENTED_EDGE('',*,*,#229,.F.);
#286=ORIENTED_EDGE('',*,*,#230,.T.);
#287=ORIENTED_EDGE('',*,*,#229,.T.);
#288=ORIENTED_EDGE('',*,*,#231,.F.);
#289=ORIENTED_EDGE('',*,*,#232,.F.);
#290=ORIENTED_EDGE('',*,*,#233,.T.);
#291=ORIENTED_EDGE('',*,*,#232,.T.);
#292=ORIENTED_EDGE('',*,*,#234,.F.);
#293=ORIENTED_EDGE('',*,*,#235,.F.);
#294=ORIENTED_EDGE('',*,*,#236,.T.);
#295=ORIENTED_EDGE('',*,*,#235,.T.);
#296=ORIENTED_EDGE('',*,*,#237,.F.);
#297=ORIENTED_EDGE('',*,*,#238,.F.);
#298=ORIENTED_EDGE('',*,*,#239,.T.);
#299=ORIENTED_EDGE('',*,*,#238,.T.);
#300=ORIENTED_EDGE('',*,*,#240,.F.);
#301=ORIENTED_EDGE('',*,*,#241,.F.);
#302=ORIENTED_EDGE('',*,*,#242,.T.);
#303=ORIENTED_EDGE('',*,*,#241,.T.);
#304=ORIENTED_EDGE('',*,*,#243,.F.);
#305=ORIENTED_EDGE('',*,*,#221,.F.);
#306=ORIENTED_EDGE('',*,*,#243,.T.);
#307=ORIENTED_EDGE('',*,*,#240,.T.);
#308=ORIENTED_EDGE('',*,*,#237,.T.);
#309=ORIENTED_EDGE('',*,*,#234,.T.);
#310=ORIENTED_EDGE('',*,*,#231,.T.);
#311=ORIENTED_EDGE('',*,*,#228,.T.);
#312=ORIENTED_EDGE('',*,*,#225,.T.);
#313=ORIENTED_EDGE('',*,*,#222,.T.);
#314=ORIENTED_EDGE('',*,*,#242,.F.);
#315=ORIENTED_EDGE('',*,*,#220,.F.);
#316=ORIENTED_EDGE('',*,*,#224,.F.);
#317=ORIENTED_EDGE('',*,*,#227,.F.);
#318=ORIENTED_EDGE('',*,*,#230,.F.);
#319=ORIENTED_EDGE('',*,*,#233,.F.);
#320=ORIENTED_EDGE('',*,*,#236,.F.);
#321=ORIENTED_EDGE('',*,*,#239,.F.);
#322=ORIENTED_EDGE('',*,*,#244,.T.);
#323=ORIENTED_EDGE('',*,*,#245,.T.);
#324=ORIENTED_EDGE('',*,*,#246,.F.);
#325=ORIENTED_EDGE('',*,*,#247,.F.);
#326=ORIENTED_EDGE('',*,*,#248,.T.);
#327=ORIENTED_EDGE('',*,*,#247,.T.);
#328=ORIENTED_EDGE('',*,*,#249,.F.);
#329=ORIENTED_EDGE('',*,*,#250,.F.);
#330=ORIENTED_EDGE('',*,*,#251,.T.);
#331=ORIENTED_EDGE('',*,*,#250,.T.);
#332=ORIENTED_EDGE('',*,*,#252,.F.);
#333=ORIENTED_EDGE('',*,*,#253,.F.);
#334=ORIENTED_EDGE('',*,*,#254,.T.);
#335=ORIENTED_EDGE('',*,*,#253,.T.);
#336=ORIENTED_EDGE('',*,*,#255,.F.);
#337=ORIENTED_EDGE('',*,*,#256,.F.);
#338=ORIENTED_EDGE('',*,*,#257,.T.);
#339=ORIENTED_EDGE('',*,*,#256,.T.);
#340=ORIENTED_EDGE('',*,*,#258,.F.);
#341=ORIENTED_EDGE('',*,*,#259,.F.);
#342=ORIENTED_EDGE('',*,*,#260,.T.);
#343=ORIENTED_EDGE('',*,*,#259,.T.);
#344=ORIENTED_EDGE('',*,*,#261,.F.);
#345=ORIENTED_EDGE('',*,*,#245,.F.);
#346=ORIENTED_EDGE('',*,*,#261,.T.);
#347=ORIENTED_EDGE('',*,*,#258,.T.);
#348=ORIENTED_EDGE('',*,*,#255,.T.);
#349=ORIENTED_EDGE('',*,*,#252,.T.);
#350=ORIENTED_EDGE('',*,*,#249,.T.);
#351=ORIENTED_EDGE('',*,*,#246,.T.);
#352=ORIENTED_EDGE('',*,*,#260,.F.);
#353=ORIENTED_EDGE('',*,*,#244,.F.);
#354=ORIENTED_EDGE('',*,*,#248,.F.);
#355=ORIENTED_EDGE('',*,*,#251,.F.);
#356=ORIENTED_EDGE('',*,*,#254,.F.);
#357=ORIENTED_EDGE('',*,*,#257,.F.);
#358=ORIENTED_EDGE('',*,*,#262,.T.);
#359=ORIENTED_EDGE('',*,*,#263,.T.);
#360=ORIENTED_EDGE('',*,*,#264,.F.);
#361=ORIENTED_EDGE('',*,*,#265,.F.);
#362=ORIENTED_EDGE('',*,*,#266,.T.);
#363=ORIENTED_EDGE('',*,*,#265,.T.);
#364=ORIENTED_EDGE('',*,*,#267,.F.);
#365=ORIENTED_EDGE('',*,*,#268,.F.);
#366=ORIENTED_EDGE('',*,*,#269,.T.);
#367=ORIENTED_EDGE('',*,*,#268,.T.);
#368=ORIENTED_EDGE('',*,*,#270,.F.);
#369=ORIENTED_EDGE('',*,*,#271,.F.);
#370=ORIENTED_EDGE('',*,*,#272,.T.);
#371=ORIENTED_EDGE('',*,*,#271,.T.);
#372=ORIENTED_EDGE('',*,*,#273,.F.);
#373=ORIENTED_EDGE('',*,*,#263,.F.);
#374=ORIENTED_EDGE('',*,*,#273,.T.);
#375=ORIENTED_EDGE('',*,*,#270,.T.);
#376=ORIENTED_EDGE('',*,*,#267,.T.);
#377=ORIENTED_EDGE('',*,*,#264,.T.);
#378=ORIENTED_EDGE('',*,*,#272,.F.);
#379=ORIENTED_EDGE('',*,*,#262,.F.);
#380=ORIENTED_EDGE('',*,*,#266,.F.);
#381=ORIENTED_EDGE('',*,*,#269,.F.);
#382=CYLINDRICAL_SURFACE('',#427,13.);
#383=CYLINDRICAL_SURFACE('',#433,13.);
#384=CYLINDRICAL_SURFACE('',#441,4.5);
#385=CYLINDRICAL_SURFACE('',#452,13.);
#386=CYLINDRICAL_SURFACE('',#456,12.);
#387=ADVANCED_FACE('',(#38),#382,.T.);
#388=ADVANCED_FACE('',(#39),#19,.T.);
#389=ADVANCED_FACE('',(#40),#20,.T.);
#390=ADVANCED_FACE('',(#41),#21,.T.);
#391=ADVANCED_FACE('',(#42),#383,.T.);
#392=ADVANCED_FACE('',(#43),#22,.T.);
#393=ADVANCED_FACE('',(#44),#23,.T.);
#394=ADVANCED_FACE('',(#45),#24,.T.);
#395=ADVANCED_FACE('',(#46),#25,.T.);
#396=ADVANCED_FACE('',(#47),#26,.F.);
#397=ADVANCED_FACE('',(#48),#384,.T.);
#398=ADVANCED_FACE('',(#49),#27,.T.);
#399=ADVANCED_FACE('',(#50),#28,.T.);
#400=ADVANCED_FACE('',(#51),#29,.T.);
#401=ADVANCED_FACE('',(#52),#30,.T.);
#402=ADVANCED_FACE('',(#53),#31,.T.);
#403=ADVANCED_FACE('',(#54),#32,.T.);
#404=ADVANCED_FACE('',(#55),#33,.F.);
#405=ADVANCED_FACE('',(#56),#34,.T.);
#406=ADVANCED_FACE('',(#57),#385,.T.);
#407=ADVANCED_FACE('',(#58),#35,.T.);
#408=ADVANCED_FACE('',(#59),#386,.F.);
#409=ADVANCED_FACE('',(#60),#36,.T.);
#410=ADVANCED_FACE('',(#61),#37,.F.);
#411=CLOSED_SHELL('',(#387,#388,#389,#390,#391,#392,#393,#394,#395,#396));
#412=CLOSED_SHELL('',(#397,#398,#399,#400,#401,#402,#403,#404));
#413=CLOSED_SHELL('',(#405,#406,#407,#408,#409,#410));
#414=DERIVED_UNIT_ELEMENT(#416,1.);
#415=DERIVED_UNIT_ELEMENT(#695,3.);
#416=(
MASS_UNIT()
NAMED_UNIT(*)
SI_UNIT($,.GRAM.)
);
#417=DERIVED_UNIT((#414,#415));
#418=MEASURE_REPRESENTATION_ITEM('density measure',
POSITIVE_RATIO_MEASURE(1.),#417);
#419=PROPERTY_DEFINITION_REPRESENTATION(#424,#421);
#420=PROPERTY_DEFINITION_REPRESENTATION(#425,#422);
#421=REPRESENTATION('material name',(#423),#692);
#422=REPRESENTATION('density',(#418),#692);
#423=DESCRIPTIVE_REPRESENTATION_ITEM('Generisch','Generisch');
#424=PROPERTY_DEFINITION('material property','material name',#702);
#425=PROPERTY_DEFINITION('material property','density of part',#702);
#426=AXIS2_PLACEMENT_3D('placement',#575,#461,#462);
#427=AXIS2_PLACEMENT_3D('',#576,#463,#464);
#428=AXIS2_PLACEMENT_3D('',#579,#465,#466);
#429=AXIS2_PLACEMENT_3D('',#583,#468,#469);
#430=AXIS2_PLACEMENT_3D('',#585,#471,#472);
#431=AXIS2_PLACEMENT_3D('',#591,#476,#477);
#432=AXIS2_PLACEMENT_3D('',#597,#481,#482);
#433=AXIS2_PLACEMENT_3D('',#603,#486,#487);
#434=AXIS2_PLACEMENT_3D('',#605,#488,#489);
#435=AXIS2_PLACEMENT_3D('',#607,#490,#491);
#436=AXIS2_PLACEMENT_3D('',#609,#493,#494);
#437=AXIS2_PLACEMENT_3D('',#615,#498,#499);
#438=AXIS2_PLACEMENT_3D('',#621,#503,#504);
#439=AXIS2_PLACEMENT_3D('',#624,#507,#508);
#440=AXIS2_PLACEMENT_3D('',#625,#509,#510);
#441=AXIS2_PLACEMENT_3D('',#626,#511,#512);
#442=AXIS2_PLACEMENT_3D('',#629,#513,#514);
#443=AXIS2_PLACEMENT_3D('',#633,#516,#517);
#444=AXIS2_PLACEMENT_3D('',#635,#519,#520);
#445=AXIS2_PLACEMENT_3D('',#641,#524,#525);
#446=AXIS2_PLACEMENT_3D('',#647,#529,#530);
#447=AXIS2_PLACEMENT_3D('',#653,#534,#535);
#448=AXIS2_PLACEMENT_3D('',#659,#539,#540);
#449=AXIS2_PLACEMENT_3D('',#662,#543,#544);
#450=AXIS2_PLACEMENT_3D('',#663,#545,#546);
#451=AXIS2_PLACEMENT_3D('',#664,#547,#548);
#452=AXIS2_PLACEMENT_3D('',#673,#553,#554);
#453=AXIS2_PLACEMENT_3D('',#675,#555,#556);
#454=AXIS2_PLACEMENT_3D('',#677,#557,#558);
#455=AXIS2_PLACEMENT_3D('',#679,#560,#561);
#456=AXIS2_PLACEMENT_3D('',#685,#565,#566);
#457=AXIS2_PLACEMENT_3D('',#686,#567,#568);
#458=AXIS2_PLACEMENT_3D('',#687,#569,#570);
#459=AXIS2_PLACEMENT_3D('',#688,#571,#572);
#460=AXIS2_PLACEMENT_3D('',#689,#573,#574);
#461=DIRECTION('axis',(0.,0.,1.));
#462=DIRECTION('refdir',(1.,0.,0.));
#463=DIRECTION('center_axis',(0.,0.,1.));
#464=DIRECTION('ref_axis',(-0.788461538461539,0.61508406121998,0.));
#465=DIRECTION('center_axis',(0.,0.,1.));
#466=DIRECTION('ref_axis',(-0.788461538461539,0.61508406121998,0.));
#467=DIRECTION('',(0.,0.,1.));
#468=DIRECTION('center_axis',(0.,0.,1.));
#469=DIRECTION('ref_axis',(-0.788461538461539,0.61508406121998,0.));
#470=DIRECTION('',(0.,0.,1.));
#471=DIRECTION('center_axis',(1.,2.92548886594244E-16,0.));
#472=DIRECTION('ref_axis',(-2.92548886594244E-16,1.,0.));
#473=DIRECTION('',(-2.92548886594244E-16,1.,0.));
#474=DIRECTION('',(-2.92548886594244E-16,1.,0.));
#475=DIRECTION('',(0.,0.,1.));
#476=DIRECTION('center_axis',(-6.76965258917778E-17,1.,0.));
#477=DIRECTION('ref_axis',(-1.,-6.76965258917778E-17,0.));
#478=DIRECTION('',(-1.,-6.76965258917778E-17,0.));
#479=DIRECTION('',(-1.,-6.76965258917778E-17,0.));
#480=DIRECTION('',(0.,0.,1.));
#481=DIRECTION('center_axis',(-1.,-2.92548886594244E-16,0.));
#482=DIRECTION('ref_axis',(2.92548886594244E-16,-1.,0.));
#483=DIRECTION('',(2.92548886594244E-16,-1.,0.));
#484=DIRECTION('',(2.92548886594244E-16,-1.,0.));
#485=DIRECTION('',(0.,0.,1.));
#486=DIRECTION('center_axis',(0.,0.,1.));
#487=DIRECTION('ref_axis',(0.788461538461539,-0.61508406121998,0.));
#488=DIRECTION('center_axis',(0.,0.,1.));
#489=DIRECTION('ref_axis',(0.788461538461539,-0.61508406121998,0.));
#490=DIRECTION('center_axis',(0.,0.,1.));
#491=DIRECTION('ref_axis',(0.788461538461539,-0.61508406121998,0.));
#492=DIRECTION('',(0.,0.,1.));
#493=DIRECTION('center_axis',(-1.,0.,0.));
#494=DIRECTION('ref_axis',(0.,-1.,0.));
#495=DIRECTION('',(0.,-1.,0.));
#496=DIRECTION('',(0.,-1.,0.));
#497=DIRECTION('',(0.,0.,1.));
#498=DIRECTION('center_axis',(7.44661784809556E-17,-1.,0.));
#499=DIRECTION('ref_axis',(1.,7.44661784809556E-17,0.));
#500=DIRECTION('',(1.,7.44661784809556E-17,0.));
#501=DIRECTION('',(1.,7.44661784809556E-17,0.));
#502=DIRECTION('',(0.,0.,1.));
#503=DIRECTION('center_axis',(1.,0.,0.));
#504=DIRECTION('ref_axis',(0.,1.,0.));
#505=DIRECTION('',(0.,1.,0.));
#506=DIRECTION('',(0.,1.,0.));
#507=DIRECTION('center_axis',(0.,0.,1.));
#508=DIRECTION('ref_axis',(1.,0.,0.));
#509=DIRECTION('center_axis',(0.,0.,1.));
#510=DIRECTION('ref_axis',(1.,0.,0.));
#511=DIRECTION('center_axis',(0.,0.,1.));
#512=DIRECTION('ref_axis',(1.,0.,0.));
#513=DIRECTION('center_axis',(0.,0.,1.));
#514=DIRECTION('ref_axis',(1.,0.,0.));
#515=DIRECTION('',(0.,0.,1.));
#516=DIRECTION('center_axis',(0.,0.,1.));
#517=DIRECTION('ref_axis',(1.,0.,0.));
#518=DIRECTION('',(0.,0.,1.));
#519=DIRECTION('center_axis',(0.,1.,0.));
#520=DIRECTION('ref_axis',(-1.,0.,0.));
#521=DIRECTION('',(-1.,0.,0.));
#522=DIRECTION('',(-1.,0.,0.));
#523=DIRECTION('',(0.,0.,1.));
#524=DIRECTION('center_axis',(1.,0.,0.));
#525=DIRECTION('ref_axis',(0.,1.,0.));
#526=DIRECTION('',(0.,1.,0.));
#527=DIRECTION('',(0.,1.,0.));
#528=DIRECTION('',(0.,0.,1.));
#529=DIRECTION('center_axis',(0.,-1.,0.));
#530=DIRECTION('ref_axis',(1.,0.,0.));
#531=DIRECTION('',(1.,0.,0.));
#532=DIRECTION('',(1.,0.,0.));
#533=DIRECTION('',(0.,0.,1.));
#534=DIRECTION('center_axis',(-1.,0.,0.));
#535=DIRECTION('ref_axis',(0.,-1.,0.));
#536=DIRECTION('',(0.,-1.,0.));
#537=DIRECTION('',(0.,-1.,0.));
#538=DIRECTION('',(0.,0.,1.));
#539=DIRECTION('center_axis',(0.,1.,0.));
#540=DIRECTION('ref_axis',(-1.,0.,0.));
#541=DIRECTION('',(-1.,0.,0.));
#542=DIRECTION('',(-1.,0.,0.));
#543=DIRECTION('center_axis',(0.,0.,1.));
#544=DIRECTION('ref_axis',(1.,0.,0.));
#545=DIRECTION('center_axis',(0.,0.,1.));
#546=DIRECTION('ref_axis',(1.,0.,0.));
#547=DIRECTION('center_axis',(1.,0.,0.));
#548=DIRECTION('ref_axis',(0.,1.,0.));
#549=DIRECTION('',(0.,1.,0.));
#550=DIRECTION('',(0.,0.,1.));
#551=DIRECTION('',(0.,1.,0.));
#552=DIRECTION('',(0.,0.,1.));
#553=DIRECTION('center_axis',(0.,0.,1.));
#554=DIRECTION('ref_axis',(1.,0.,0.));
#555=DIRECTION('center_axis',(0.,0.,1.));
#556=DIRECTION('ref_axis',(1.,0.,0.));
#557=DIRECTION('center_axis',(0.,0.,1.));
#558=DIRECTION('ref_axis',(1.,0.,0.));
#559=DIRECTION('',(0.,0.,1.));
#560=DIRECTION('center_axis',(-1.,2.62959566359818E-15,0.));
#561=DIRECTION('ref_axis',(-2.62959566359818E-15,-1.,0.));
#562=DIRECTION('',(-2.62959566359818E-15,-1.,0.));
#563=DIRECTION('',(-2.62959566359818E-15,-1.,0.));
#564=DIRECTION('',(0.,0.,1.));
#565=DIRECTION('center_axis',(0.,0.,1.));
#566=DIRECTION('ref_axis',(-1.,0.,0.));
#567=DIRECTION('center_axis',(0.,0.,-1.));
#568=DIRECTION('ref_axis',(-1.,0.,0.));
#569=DIRECTION('center_axis',(0.,0.,-1.));
#570=DIRECTION('ref_axis',(-1.,0.,0.));
#571=DIRECTION('center_axis',(0.,0.,1.));
#572=DIRECTION('ref_axis',(1.,0.,0.));
#573=DIRECTION('center_axis',(0.,0.,1.));
#574=DIRECTION('ref_axis',(1.,0.,0.));
#575=CARTESIAN_POINT('',(0.,0.,0.));
#576=CARTESIAN_POINT('Origin',(0.,0.,0.));
#577=CARTESIAN_POINT('',(-10.25,7.99609279585973,0.));
#578=CARTESIAN_POINT('',(-10.25,-7.99609279585974,0.));
#579=CARTESIAN_POINT('Origin',(0.,0.,0.));
#580=CARTESIAN_POINT('',(-10.25,-7.99609279585974,1000.));
#581=CARTESIAN_POINT('',(-10.25,-7.99609279585974,0.));
#582=CARTESIAN_POINT('',(-10.25,7.99609279585973,1000.));
#583=CARTESIAN_POINT('Origin',(0.,0.,1000.));
#584=CARTESIAN_POINT('',(-10.25,7.99609279585973,0.));
#585=CARTESIAN_POINT('Origin',(-10.25,0.406092795859734,0.));
#586=CARTESIAN_POINT('',(-10.25,0.406092795859734,0.));
#587=CARTESIAN_POINT('',(-10.25,0.406092795859734,0.));
#588=CARTESIAN_POINT('',(-10.25,0.406092795859735,1000.));
#589=CARTESIAN_POINT('',(-10.25,0.406092795859734,1000.));
#590=CARTESIAN_POINT('',(-10.25,0.406092795859734,0.));
#591=CARTESIAN_POINT('Origin',(10.25,0.406092795859736,0.));
#592=CARTESIAN_POINT('',(10.25,0.406092795859736,0.));
#593=CARTESIAN_POINT('',(10.25,0.406092795859736,0.));
#594=CARTESIAN_POINT('',(10.25,0.406092795859736,1000.));
#595=CARTESIAN_POINT('',(10.25,0.406092795859736,1000.));
#596=CARTESIAN_POINT('',(10.25,0.406092795859736,0.));
#597=CARTESIAN_POINT('Origin',(10.25,7.99609279585974,0.));
#598=CARTESIAN_POINT('',(10.25,7.99609279585974,0.));
#599=CARTESIAN_POINT('',(10.25,7.99609279585974,0.));
#600=CARTESIAN_POINT('',(10.25,7.99609279585974,1000.));
#601=CARTESIAN_POINT('',(10.25,7.99609279585974,1000.));
#602=CARTESIAN_POINT('',(10.25,7.99609279585974,0.));
#603=CARTESIAN_POINT('Origin',(0.,0.,0.));
#604=CARTESIAN_POINT('',(10.25,-7.99609279585974,0.));
#605=CARTESIAN_POINT('Origin',(0.,0.,0.));
#606=CARTESIAN_POINT('',(10.25,-7.99609279585974,1000.));
#607=CARTESIAN_POINT('Origin',(0.,0.,1000.));
#608=CARTESIAN_POINT('',(10.25,-7.99609279585974,0.));
#609=CARTESIAN_POINT('Origin',(10.25,-1.09390720414026,0.));
#610=CARTESIAN_POINT('',(10.25,-1.09390720414026,0.));
#611=CARTESIAN_POINT('',(10.25,-1.09390720414026,0.));
#612=CARTESIAN_POINT('',(10.25,-1.09390720414026,1000.));
#613=CARTESIAN_POINT('',(10.25,-1.09390720414026,1000.));
#614=CARTESIAN_POINT('',(10.25,-1.09390720414026,0.));
#615=CARTESIAN_POINT('Origin',(-10.25,-1.09390720414027,0.));
#616=CARTESIAN_POINT('',(-10.25,-1.09390720414027,0.));
#617=CARTESIAN_POINT('',(-10.25,-1.09390720414027,0.));
#618=CARTESIAN_POINT('',(-10.25,-1.09390720414027,1000.));
#619=CARTESIAN_POINT('',(-10.25,-1.09390720414027,1000.));
#620=CARTESIAN_POINT('',(-10.25,-1.09390720414027,0.));
#621=CARTESIAN_POINT('Origin',(-10.25,-7.99609279585974,0.));
#622=CARTESIAN_POINT('',(-10.25,-7.99609279585974,0.));
#623=CARTESIAN_POINT('',(-10.25,-7.99609279585974,1000.));
#624=CARTESIAN_POINT('Origin',(-1.11022302462516E-15,2.77555756156289E-15,
1000.));
#625=CARTESIAN_POINT('Origin',(-1.11022302462516E-15,2.77555756156289E-15,
0.));
#626=CARTESIAN_POINT('Origin',(0.,7.99609279585974,0.));
#627=CARTESIAN_POINT('',(4.5,7.99609279585974,0.));
#628=CARTESIAN_POINT('',(-4.5,7.99609279585974,0.));
#629=CARTESIAN_POINT('Origin',(0.,7.99609279585974,0.));
#630=CARTESIAN_POINT('',(-4.5,7.99609279585974,1000.));
#631=CARTESIAN_POINT('',(-4.5,7.99609279585974,0.));
#632=CARTESIAN_POINT('',(4.5,7.99609279585974,1000.));
#633=CARTESIAN_POINT('Origin',(0.,7.99609279585974,1000.));
#634=CARTESIAN_POINT('',(4.5,7.99609279585974,0.));
#635=CARTESIAN_POINT('Origin',(10.05,7.99609279585974,0.));
#636=CARTESIAN_POINT('',(10.05,7.99609279585974,0.));
#637=CARTESIAN_POINT('',(10.05,7.99609279585974,0.));
#638=CARTESIAN_POINT('',(10.05,7.99609279585974,1000.));
#639=CARTESIAN_POINT('',(10.05,7.99609279585974,1000.));
#640=CARTESIAN_POINT('',(10.05,7.99609279585974,0.));
#641=CARTESIAN_POINT('Origin',(10.05,6.99609279585974,0.));
#642=CARTESIAN_POINT('',(10.05,6.99609279585974,0.));
#643=CARTESIAN_POINT('',(10.05,6.99609279585974,0.));
#644=CARTESIAN_POINT('',(10.05,6.99609279585974,1000.));
#645=CARTESIAN_POINT('',(10.05,6.99609279585974,1000.));
#646=CARTESIAN_POINT('',(10.05,6.99609279585974,0.));
#647=CARTESIAN_POINT('Origin',(-10.05,6.99609279585974,0.));
#648=CARTESIAN_POINT('',(-10.05,6.99609279585974,0.));
#649=CARTESIAN_POINT('',(-10.05,6.99609279585974,0.));
#650=CARTESIAN_POINT('',(-10.05,6.99609279585974,1000.));
#651=CARTESIAN_POINT('',(-10.05,6.99609279585974,1000.));
#652=CARTESIAN_POINT('',(-10.05,6.99609279585974,0.));
#653=CARTESIAN_POINT('Origin',(-10.05,7.99609279585974,0.));
#654=CARTESIAN_POINT('',(-10.05,7.99609279585974,0.));
#655=CARTESIAN_POINT('',(-10.05,7.99609279585974,0.));
#656=CARTESIAN_POINT('',(-10.05,7.99609279585974,1000.));
#657=CARTESIAN_POINT('',(-10.05,7.99609279585974,1000.));
#658=CARTESIAN_POINT('',(-10.05,7.99609279585974,0.));
#659=CARTESIAN_POINT('Origin',(-4.5,7.99609279585974,0.));
#660=CARTESIAN_POINT('',(-4.5,7.99609279585974,0.));
#661=CARTESIAN_POINT('',(-4.5,7.99609279585974,1000.));
#662=CARTESIAN_POINT('Origin',(0.,9.74609279585974,1000.));
#663=CARTESIAN_POINT('Origin',(0.,9.74609279585974,0.));
#664=CARTESIAN_POINT('Origin',(10.05,-8.24605966507641,0.));
#665=CARTESIAN_POINT('',(10.05,-8.24605966507641,0.));
#666=CARTESIAN_POINT('',(10.05,-6.55724789831832,0.));
#667=CARTESIAN_POINT('',(10.05,-8.24605966507641,0.));
#668=CARTESIAN_POINT('',(10.05,-6.55724789831832,1000.));
#669=CARTESIAN_POINT('',(10.05,-6.55724789831832,0.));
#670=CARTESIAN_POINT('',(10.05,-8.24605966507641,1000.));
#671=CARTESIAN_POINT('',(10.05,-8.24605966507641,1000.));
#672=CARTESIAN_POINT('',(10.05,-8.24605966507641,0.));
#673=CARTESIAN_POINT('Origin',(0.,0.,0.));
#674=CARTESIAN_POINT('',(-10.05,-8.24605966507639,0.));
#675=CARTESIAN_POINT('Origin',(0.,0.,0.));
#676=CARTESIAN_POINT('',(-10.05,-8.24605966507639,1000.));
#677=CARTESIAN_POINT('Origin',(0.,0.,1000.));
#678=CARTESIAN_POINT('',(-10.05,-8.24605966507639,0.));
#679=CARTESIAN_POINT('Origin',(-10.05,-6.55724789831831,0.));
#680=CARTESIAN_POINT('',(-10.05,-6.55724789831831,0.));
#681=CARTESIAN_POINT('',(-10.05,-6.55724789831831,0.));
#682=CARTESIAN_POINT('',(-10.05,-6.55724789831831,1000.));
#683=CARTESIAN_POINT('',(-10.05,-6.55724789831831,1000.));
#684=CARTESIAN_POINT('',(-10.05,-6.55724789831831,0.));
#685=CARTESIAN_POINT('Origin',(0.,0.,0.));
#686=CARTESIAN_POINT('Origin',(0.,0.,0.));
#687=CARTESIAN_POINT('Origin',(0.,0.,1000.));
#688=CARTESIAN_POINT('Origin',(-4.44089209850063E-15,-9.77862394915916,
1000.));
#689=CARTESIAN_POINT('Origin',(-4.44089209850063E-15,-9.77862394915916,
0.));
#690=UNCERTAINTY_MEASURE_WITH_UNIT(LENGTH_MEASURE(0.01),#694,
'DISTANCE_ACCURACY_VALUE',
'Maximum model space distance between geometric entities at asserted c
onnectivities');
#691=UNCERTAINTY_MEASURE_WITH_UNIT(LENGTH_MEASURE(0.01),#694,
'DISTANCE_ACCURACY_VALUE',
'Maximum model space distance between geometric entities at asserted c
onnectivities');
#692=(
GEOMETRIC_REPRESENTATION_CONTEXT(3)
GLOBAL_UNCERTAINTY_ASSIGNED_CONTEXT((#690))
GLOBAL_UNIT_ASSIGNED_CONTEXT((#694,#696,#697))
REPRESENTATION_CONTEXT('','3D')
);
#693=(
GEOMETRIC_REPRESENTATION_CONTEXT(3)
GLOBAL_UNCERTAINTY_ASSIGNED_CONTEXT((#691))
GLOBAL_UNIT_ASSIGNED_CONTEXT((#694,#696,#697))
REPRESENTATION_CONTEXT('','3D')
);
#694=(
LENGTH_UNIT()
NAMED_UNIT(*)
SI_UNIT(.MILLI.,.METRE.)
);
#695=(
LENGTH_UNIT()
NAMED_UNIT(*)
SI_UNIT(.CENTI.,.METRE.)
);
#696=(
NAMED_UNIT(*)
PLANE_ANGLE_UNIT()
SI_UNIT($,.RADIAN.)
);
#697=(
NAMED_UNIT(*)
SI_UNIT($,.STERADIAN.)
SOLID_ANGLE_UNIT()
);
#698=SHAPE_DEFINITION_REPRESENTATION(#699,#700);
#699=PRODUCT_DEFINITION_SHAPE('',$,#702);
#700=SHAPE_REPRESENTATION('',(#426),#692);
#701=PRODUCT_DEFINITION_CONTEXT('part definition',#706,'design');
#702=PRODUCT_DEFINITION('UNE-013_936-066-013_26-konvex','Tube_26_30',#703,
#701);
#703=PRODUCT_DEFINITION_FORMATION('',$,#708);
#704=PRODUCT_RELATED_PRODUCT_CATEGORY('Tube_26_30','Tube_26_30',(#708));
#705=APPLICATION_PROTOCOL_DEFINITION('international standard',
'automotive_design',2009,#706);
#706=APPLICATION_CONTEXT(
'Core Data for Automotive Mechanical Design Process');
#707=PRODUCT_CONTEXT('part definition',#706,'mechanical');
#708=PRODUCT('UNE-013_936-066-013_26-konvex','Tube_26_30',$,(#707));
#709=PRESENTATION_STYLE_ASSIGNMENT((#710));
#710=SURFACE_STYLE_USAGE(.BOTH.,#713);
#711=SURFACE_STYLE_RENDERING_WITH_PROPERTIES($,#717,(#712));
#712=SURFACE_STYLE_TRANSPARENT(0.);
#713=SURFACE_SIDE_STYLE('',(#714,#711));
#714=SURFACE_STYLE_FILL_AREA(#715);
#715=FILL_AREA_STYLE('',(#716));
#716=FILL_AREA_STYLE_COLOUR('',#717);
#717=COLOUR_RGB('',0.749019607843137,0.749019607843137,0.749019607843137);
ENDSEC;
END-ISO-10303-21;
