ISO-10303-21;
HEADER;
/* Generated by software containing ST-Developer
 * from STEP Tools, Inc. (www.steptools.com) 
 */

FILE_DESCRIPTION(
/* description */ (''),
/* implementation_level */ '2;1');

FILE_NAME(
/* name */ 
'P:\\Projekte\\PP1292 Unex Dakota LED Profile\\22-Zeichnungen St\X\FCc
klisten\\Anwender_3D-Daten\\3D_Combo_30.stp',
/* time_stamp */ '2021-03-22T14:51:41+01:00',
/* author */ ('sstotter'),
/* organization */ (''),
/* preprocessor_version */ 'ST-DEVELOPER v18.1',
/* originating_system */ 'Autodesk Inventor 2021',
/* authorisation */ '');

FILE_SCHEMA (('AUTOMOTIVE_DESIGN { 1 0 10303 214 3 1 1 }'));
ENDSEC;

DATA;
#10=MECHANICAL_DESIGN_GEOMETRIC_PRESENTATION_REPRESENTATION('',(#13,#14),
#466);
#11=SHAPE_REPRESENTATION_RELATIONSHIP('SRR','None',#473,#12);
#12=ADVANCED_BREP_SHAPE_REPRESENTATION('',(#15,#16),#465);
#13=STYLED_ITEM('',(#482),#15);
#14=STYLED_ITEM('',(#482),#16);
#15=MANIFOLD_SOLID_BREP('Volumenk\X\F6rper1',#285);
#16=MANIFOLD_SOLID_BREP('Volumenk\X\F6rper1',#286);
#17=FACE_OUTER_BOUND('',#33,.T.);
#18=FACE_OUTER_BOUND('',#34,.T.);
#19=FACE_OUTER_BOUND('',#35,.T.);
#20=FACE_OUTER_BOUND('',#36,.T.);
#21=FACE_OUTER_BOUND('',#37,.T.);
#22=FACE_OUTER_BOUND('',#38,.T.);
#23=FACE_OUTER_BOUND('',#39,.T.);
#24=FACE_OUTER_BOUND('',#40,.T.);
#25=FACE_OUTER_BOUND('',#41,.T.);
#26=FACE_OUTER_BOUND('',#42,.T.);
#27=FACE_OUTER_BOUND('',#43,.T.);
#28=FACE_OUTER_BOUND('',#44,.T.);
#29=FACE_OUTER_BOUND('',#45,.T.);
#30=FACE_OUTER_BOUND('',#46,.T.);
#31=FACE_OUTER_BOUND('',#47,.T.);
#32=FACE_OUTER_BOUND('',#48,.T.);
#33=EDGE_LOOP('',(#181,#182,#183,#184));
#34=EDGE_LOOP('',(#185,#186,#187,#188));
#35=EDGE_LOOP('',(#189,#190,#191,#192));
#36=EDGE_LOOP('',(#193,#194,#195,#196));
#37=EDGE_LOOP('',(#197,#198,#199,#200));
#38=EDGE_LOOP('',(#201,#202,#203,#204));
#39=EDGE_LOOP('',(#205,#206,#207,#208));
#40=EDGE_LOOP('',(#209,#210,#211,#212));
#41=EDGE_LOOP('',(#213,#214,#215,#216));
#42=EDGE_LOOP('',(#217,#218,#219,#220));
#43=EDGE_LOOP('',(#221,#222,#223,#224));
#44=EDGE_LOOP('',(#225,#226,#227,#228));
#45=EDGE_LOOP('',(#229,#230,#231,#232));
#46=EDGE_LOOP('',(#233,#234,#235,#236));
#47=EDGE_LOOP('',(#237,#238,#239,#240,#241,#242,#243,#244));
#48=EDGE_LOOP('',(#245,#246,#247,#248,#249,#250,#251,#252));
#49=LINE('',#390,#85);
#50=LINE('',#392,#86);
#51=LINE('',#394,#87);
#52=LINE('',#395,#88);
#53=LINE('',#398,#89);
#54=LINE('',#400,#90);
#55=LINE('',#401,#91);
#56=LINE('',#404,#92);
#57=LINE('',#406,#93);
#58=LINE('',#407,#94);
#59=LINE('',#409,#95);
#60=LINE('',#410,#96);
#61=LINE('',#416,#97);
#62=LINE('',#418,#98);
#63=LINE('',#420,#99);
#64=LINE('',#421,#100);
#65=LINE('',#424,#101);
#66=LINE('',#426,#102);
#67=LINE('',#427,#103);
#68=LINE('',#430,#104);
#69=LINE('',#432,#105);
#70=LINE('',#433,#106);
#71=LINE('',#436,#107);
#72=LINE('',#438,#108);
#73=LINE('',#439,#109);
#74=LINE('',#442,#110);
#75=LINE('',#444,#111);
#76=LINE('',#445,#112);
#77=LINE('',#448,#113);
#78=LINE('',#450,#114);
#79=LINE('',#451,#115);
#80=LINE('',#454,#116);
#81=LINE('',#456,#117);
#82=LINE('',#457,#118);
#83=LINE('',#459,#119);
#84=LINE('',#460,#120);
#85=VECTOR('',#320,10.);
#86=VECTOR('',#321,10.);
#87=VECTOR('',#322,10.);
#88=VECTOR('',#323,10.);
#89=VECTOR('',#326,10.);
#90=VECTOR('',#327,10.);
#91=VECTOR('',#328,10.);
#92=VECTOR('',#331,10.);
#93=VECTOR('',#332,10.);
#94=VECTOR('',#333,10.);
#95=VECTOR('',#336,10.);
#96=VECTOR('',#337,10.);
#97=VECTOR('',#344,10.);
#98=VECTOR('',#345,10.);
#99=VECTOR('',#346,10.);
#100=VECTOR('',#347,10.);
#101=VECTOR('',#350,10.);
#102=VECTOR('',#351,10.);
#103=VECTOR('',#352,10.);
#104=VECTOR('',#355,10.);
#105=VECTOR('',#356,10.);
#106=VECTOR('',#357,10.);
#107=VECTOR('',#360,10.);
#108=VECTOR('',#361,10.);
#109=VECTOR('',#362,10.);
#110=VECTOR('',#365,10.);
#111=VECTOR('',#366,10.);
#112=VECTOR('',#367,10.);
#113=VECTOR('',#370,10.);
#114=VECTOR('',#371,10.);
#115=VECTOR('',#372,10.);
#116=VECTOR('',#375,10.);
#117=VECTOR('',#376,10.);
#118=VECTOR('',#377,10.);
#119=VECTOR('',#380,10.);
#120=VECTOR('',#381,10.);
#121=VERTEX_POINT('',#388);
#122=VERTEX_POINT('',#389);
#123=VERTEX_POINT('',#391);
#124=VERTEX_POINT('',#393);
#125=VERTEX_POINT('',#397);
#126=VERTEX_POINT('',#399);
#127=VERTEX_POINT('',#403);
#128=VERTEX_POINT('',#405);
#129=VERTEX_POINT('',#414);
#130=VERTEX_POINT('',#415);
#131=VERTEX_POINT('',#417);
#132=VERTEX_POINT('',#419);
#133=VERTEX_POINT('',#423);
#134=VERTEX_POINT('',#425);
#135=VERTEX_POINT('',#429);
#136=VERTEX_POINT('',#431);
#137=VERTEX_POINT('',#435);
#138=VERTEX_POINT('',#437);
#139=VERTEX_POINT('',#441);
#140=VERTEX_POINT('',#443);
#141=VERTEX_POINT('',#447);
#142=VERTEX_POINT('',#449);
#143=VERTEX_POINT('',#453);
#144=VERTEX_POINT('',#455);
#145=EDGE_CURVE('',#121,#122,#49,.T.);
#146=EDGE_CURVE('',#121,#123,#50,.T.);
#147=EDGE_CURVE('',#123,#124,#51,.T.);
#148=EDGE_CURVE('',#122,#124,#52,.T.);
#149=EDGE_CURVE('',#125,#122,#53,.T.);
#150=EDGE_CURVE('',#126,#124,#54,.T.);
#151=EDGE_CURVE('',#125,#126,#55,.T.);
#152=EDGE_CURVE('',#127,#125,#56,.T.);
#153=EDGE_CURVE('',#128,#126,#57,.T.);
#154=EDGE_CURVE('',#127,#128,#58,.T.);
#155=EDGE_CURVE('',#127,#121,#59,.T.);
#156=EDGE_CURVE('',#128,#123,#60,.T.);
#157=EDGE_CURVE('',#129,#130,#61,.T.);
#158=EDGE_CURVE('',#129,#131,#62,.T.);
#159=EDGE_CURVE('',#131,#132,#63,.T.);
#160=EDGE_CURVE('',#130,#132,#64,.T.);
#161=EDGE_CURVE('',#133,#129,#65,.T.);
#162=EDGE_CURVE('',#133,#134,#66,.T.);
#163=EDGE_CURVE('',#134,#131,#67,.T.);
#164=EDGE_CURVE('',#135,#133,#68,.T.);
#165=EDGE_CURVE('',#135,#136,#69,.T.);
#166=EDGE_CURVE('',#136,#134,#70,.T.);
#167=EDGE_CURVE('',#137,#130,#71,.T.);
#168=EDGE_CURVE('',#138,#132,#72,.T.);
#169=EDGE_CURVE('',#137,#138,#73,.T.);
#170=EDGE_CURVE('',#139,#137,#74,.T.);
#171=EDGE_CURVE('',#140,#138,#75,.T.);
#172=EDGE_CURVE('',#139,#140,#76,.T.);
#173=EDGE_CURVE('',#141,#139,#77,.T.);
#174=EDGE_CURVE('',#142,#140,#78,.T.);
#175=EDGE_CURVE('',#141,#142,#79,.T.);
#176=EDGE_CURVE('',#143,#141,#80,.T.);
#177=EDGE_CURVE('',#144,#142,#81,.T.);
#178=EDGE_CURVE('',#143,#144,#82,.T.);
#179=EDGE_CURVE('',#135,#143,#83,.T.);
#180=EDGE_CURVE('',#144,#136,#84,.T.);
#181=ORIENTED_EDGE('',*,*,#145,.F.);
#182=ORIENTED_EDGE('',*,*,#146,.T.);
#183=ORIENTED_EDGE('',*,*,#147,.T.);
#184=ORIENTED_EDGE('',*,*,#148,.F.);
#185=ORIENTED_EDGE('',*,*,#149,.T.);
#186=ORIENTED_EDGE('',*,*,#148,.T.);
#187=ORIENTED_EDGE('',*,*,#150,.F.);
#188=ORIENTED_EDGE('',*,*,#151,.F.);
#189=ORIENTED_EDGE('',*,*,#152,.T.);
#190=ORIENTED_EDGE('',*,*,#151,.T.);
#191=ORIENTED_EDGE('',*,*,#153,.F.);
#192=ORIENTED_EDGE('',*,*,#154,.F.);
#193=ORIENTED_EDGE('',*,*,#155,.F.);
#194=ORIENTED_EDGE('',*,*,#154,.T.);
#195=ORIENTED_EDGE('',*,*,#156,.T.);
#196=ORIENTED_EDGE('',*,*,#146,.F.);
#197=ORIENTED_EDGE('',*,*,#156,.F.);
#198=ORIENTED_EDGE('',*,*,#153,.T.);
#199=ORIENTED_EDGE('',*,*,#150,.T.);
#200=ORIENTED_EDGE('',*,*,#147,.F.);
#201=ORIENTED_EDGE('',*,*,#149,.F.);
#202=ORIENTED_EDGE('',*,*,#152,.F.);
#203=ORIENTED_EDGE('',*,*,#155,.T.);
#204=ORIENTED_EDGE('',*,*,#145,.T.);
#205=ORIENTED_EDGE('',*,*,#157,.F.);
#206=ORIENTED_EDGE('',*,*,#158,.T.);
#207=ORIENTED_EDGE('',*,*,#159,.T.);
#208=ORIENTED_EDGE('',*,*,#160,.F.);
#209=ORIENTED_EDGE('',*,*,#161,.F.);
#210=ORIENTED_EDGE('',*,*,#162,.T.);
#211=ORIENTED_EDGE('',*,*,#163,.T.);
#212=ORIENTED_EDGE('',*,*,#158,.F.);
#213=ORIENTED_EDGE('',*,*,#164,.F.);
#214=ORIENTED_EDGE('',*,*,#165,.T.);
#215=ORIENTED_EDGE('',*,*,#166,.T.);
#216=ORIENTED_EDGE('',*,*,#162,.F.);
#217=ORIENTED_EDGE('',*,*,#167,.T.);
#218=ORIENTED_EDGE('',*,*,#160,.T.);
#219=ORIENTED_EDGE('',*,*,#168,.F.);
#220=ORIENTED_EDGE('',*,*,#169,.F.);
#221=ORIENTED_EDGE('',*,*,#170,.T.);
#222=ORIENTED_EDGE('',*,*,#169,.T.);
#223=ORIENTED_EDGE('',*,*,#171,.F.);
#224=ORIENTED_EDGE('',*,*,#172,.F.);
#225=ORIENTED_EDGE('',*,*,#173,.T.);
#226=ORIENTED_EDGE('',*,*,#172,.T.);
#227=ORIENTED_EDGE('',*,*,#174,.F.);
#228=ORIENTED_EDGE('',*,*,#175,.F.);
#229=ORIENTED_EDGE('',*,*,#176,.T.);
#230=ORIENTED_EDGE('',*,*,#175,.T.);
#231=ORIENTED_EDGE('',*,*,#177,.F.);
#232=ORIENTED_EDGE('',*,*,#178,.F.);
#233=ORIENTED_EDGE('',*,*,#179,.T.);
#234=ORIENTED_EDGE('',*,*,#178,.T.);
#235=ORIENTED_EDGE('',*,*,#180,.T.);
#236=ORIENTED_EDGE('',*,*,#165,.F.);
#237=ORIENTED_EDGE('',*,*,#180,.F.);
#238=ORIENTED_EDGE('',*,*,#177,.T.);
#239=ORIENTED_EDGE('',*,*,#174,.T.);
#240=ORIENTED_EDGE('',*,*,#171,.T.);
#241=ORIENTED_EDGE('',*,*,#168,.T.);
#242=ORIENTED_EDGE('',*,*,#159,.F.);
#243=ORIENTED_EDGE('',*,*,#163,.F.);
#244=ORIENTED_EDGE('',*,*,#166,.F.);
#245=ORIENTED_EDGE('',*,*,#179,.F.);
#246=ORIENTED_EDGE('',*,*,#164,.T.);
#247=ORIENTED_EDGE('',*,*,#161,.T.);
#248=ORIENTED_EDGE('',*,*,#157,.T.);
#249=ORIENTED_EDGE('',*,*,#167,.F.);
#250=ORIENTED_EDGE('',*,*,#170,.F.);
#251=ORIENTED_EDGE('',*,*,#173,.F.);
#252=ORIENTED_EDGE('',*,*,#176,.F.);
#253=PLANE('',#300);
#254=PLANE('',#301);
#255=PLANE('',#302);
#256=PLANE('',#303);
#257=PLANE('',#304);
#258=PLANE('',#305);
#259=PLANE('',#306);
#260=PLANE('',#307);
#261=PLANE('',#308);
#262=PLANE('',#309);
#263=PLANE('',#310);
#264=PLANE('',#311);
#265=PLANE('',#312);
#266=PLANE('',#313);
#267=PLANE('',#314);
#268=PLANE('',#315);
#269=ADVANCED_FACE('',(#17),#253,.F.);
#270=ADVANCED_FACE('',(#18),#254,.T.);
#271=ADVANCED_FACE('',(#19),#255,.T.);
#272=ADVANCED_FACE('',(#20),#256,.T.);
#273=ADVANCED_FACE('',(#21),#257,.T.);
#274=ADVANCED_FACE('',(#22),#258,.F.);
#275=ADVANCED_FACE('',(#23),#259,.F.);
#276=ADVANCED_FACE('',(#24),#260,.F.);
#277=ADVANCED_FACE('',(#25),#261,.F.);
#278=ADVANCED_FACE('',(#26),#262,.T.);
#279=ADVANCED_FACE('',(#27),#263,.T.);
#280=ADVANCED_FACE('',(#28),#264,.T.);
#281=ADVANCED_FACE('',(#29),#265,.T.);
#282=ADVANCED_FACE('',(#30),#266,.T.);
#283=ADVANCED_FACE('',(#31),#267,.T.);
#284=ADVANCED_FACE('',(#32),#268,.F.);
#285=CLOSED_SHELL('',(#269,#270,#271,#272,#273,#274));
#286=CLOSED_SHELL('',(#275,#276,#277,#278,#279,#280,#281,#282,#283,#284));
#287=DERIVED_UNIT_ELEMENT(#289,1.);
#288=DERIVED_UNIT_ELEMENT(#468,3.);
#289=(
MASS_UNIT()
NAMED_UNIT(*)
SI_UNIT($,.GRAM.)
);
#290=DERIVED_UNIT((#287,#288));
#291=MEASURE_REPRESENTATION_ITEM('density measure',
POSITIVE_RATIO_MEASURE(1.),#290);
#292=PROPERTY_DEFINITION_REPRESENTATION(#297,#294);
#293=PROPERTY_DEFINITION_REPRESENTATION(#298,#295);
#294=REPRESENTATION('material name',(#296),#465);
#295=REPRESENTATION('density',(#291),#465);
#296=DESCRIPTIVE_REPRESENTATION_ITEM('Generisch','Generisch');
#297=PROPERTY_DEFINITION('material property','material name',#475);
#298=PROPERTY_DEFINITION('material property','density of part',#475);
#299=AXIS2_PLACEMENT_3D('placement',#386,#316,#317);
#300=AXIS2_PLACEMENT_3D('',#387,#318,#319);
#301=AXIS2_PLACEMENT_3D('',#396,#324,#325);
#302=AXIS2_PLACEMENT_3D('',#402,#329,#330);
#303=AXIS2_PLACEMENT_3D('',#408,#334,#335);
#304=AXIS2_PLACEMENT_3D('',#411,#338,#339);
#305=AXIS2_PLACEMENT_3D('',#412,#340,#341);
#306=AXIS2_PLACEMENT_3D('',#413,#342,#343);
#307=AXIS2_PLACEMENT_3D('',#422,#348,#349);
#308=AXIS2_PLACEMENT_3D('',#428,#353,#354);
#309=AXIS2_PLACEMENT_3D('',#434,#358,#359);
#310=AXIS2_PLACEMENT_3D('',#440,#363,#364);
#311=AXIS2_PLACEMENT_3D('',#446,#368,#369);
#312=AXIS2_PLACEMENT_3D('',#452,#373,#374);
#313=AXIS2_PLACEMENT_3D('',#458,#378,#379);
#314=AXIS2_PLACEMENT_3D('',#461,#382,#383);
#315=AXIS2_PLACEMENT_3D('',#462,#384,#385);
#316=DIRECTION('axis',(0.,0.,1.));
#317=DIRECTION('refdir',(1.,0.,0.));
#318=DIRECTION('center_axis',(-1.,-4.93432455388957E-15,0.));
#319=DIRECTION('ref_axis',(4.93432455388957E-15,-1.,0.));
#320=DIRECTION('',(4.93432455388957E-15,-1.,0.));
#321=DIRECTION('',(0.,0.,1.));
#322=DIRECTION('',(4.93432455388957E-15,-1.,0.));
#323=DIRECTION('',(0.,0.,1.));
#324=DIRECTION('center_axis',(-4.44089209850062E-16,-1.,0.));
#325=DIRECTION('ref_axis',(1.,-4.44089209850062E-16,0.));
#326=DIRECTION('',(1.,-4.44089209850062E-16,0.));
#327=DIRECTION('',(1.,-4.44089209850062E-16,0.));
#328=DIRECTION('',(0.,0.,1.));
#329=DIRECTION('center_axis',(-1.,4.93432455388957E-15,0.));
#330=DIRECTION('ref_axis',(-4.93432455388957E-15,-1.,0.));
#331=DIRECTION('',(-4.93432455388957E-15,-1.,0.));
#332=DIRECTION('',(-4.93432455388957E-15,-1.,0.));
#333=DIRECTION('',(0.,0.,1.));
#334=DIRECTION('center_axis',(-2.96059473233375E-16,1.,0.));
#335=DIRECTION('ref_axis',(-1.,-2.96059473233375E-16,0.));
#336=DIRECTION('',(1.,-2.96059473233375E-16,0.));
#337=DIRECTION('',(1.,-2.96059473233375E-16,0.));
#338=DIRECTION('center_axis',(0.,0.,1.));
#339=DIRECTION('ref_axis',(1.,0.,0.));
#340=DIRECTION('center_axis',(0.,0.,1.));
#341=DIRECTION('ref_axis',(1.,0.,0.));
#342=DIRECTION('center_axis',(-1.,0.,0.));
#343=DIRECTION('ref_axis',(0.,-1.,0.));
#344=DIRECTION('',(0.,-1.,0.));
#345=DIRECTION('',(0.,0.,1.));
#346=DIRECTION('',(0.,-1.,0.));
#347=DIRECTION('',(0.,0.,1.));
#348=DIRECTION('center_axis',(0.,-1.,0.));
#349=DIRECTION('ref_axis',(1.,0.,0.));
#350=DIRECTION('',(1.,0.,0.));
#351=DIRECTION('',(0.,0.,1.));
#352=DIRECTION('',(1.,0.,0.));
#353=DIRECTION('center_axis',(1.,-2.69144975666705E-16,0.));
#354=DIRECTION('ref_axis',(2.69144975666705E-16,1.,0.));
#355=DIRECTION('',(2.69144975666705E-16,1.,0.));
#356=DIRECTION('',(0.,0.,1.));
#357=DIRECTION('',(2.69144975666705E-16,1.,0.));
#358=DIRECTION('center_axis',(1.22464679914735E-16,-1.,0.));
#359=DIRECTION('ref_axis',(1.,1.22464679914735E-16,0.));
#360=DIRECTION('',(1.,1.22464679914735E-16,0.));
#361=DIRECTION('',(1.,1.22464679914735E-16,0.));
#362=DIRECTION('',(0.,0.,1.));
#363=DIRECTION('center_axis',(-1.,0.,0.));
#364=DIRECTION('ref_axis',(0.,-1.,0.));
#365=DIRECTION('',(0.,-1.,0.));
#366=DIRECTION('',(0.,-1.,0.));
#367=DIRECTION('',(0.,0.,1.));
#368=DIRECTION('center_axis',(0.,1.,0.));
#369=DIRECTION('ref_axis',(-1.,0.,0.));
#370=DIRECTION('',(-1.,0.,0.));
#371=DIRECTION('',(-1.,0.,0.));
#372=DIRECTION('',(0.,0.,1.));
#373=DIRECTION('center_axis',(1.,2.69144975666705E-16,0.));
#374=DIRECTION('ref_axis',(-2.69144975666705E-16,1.,0.));
#375=DIRECTION('',(-2.69144975666705E-16,1.,0.));
#376=DIRECTION('',(-2.69144975666705E-16,1.,0.));
#377=DIRECTION('',(0.,0.,1.));
#378=DIRECTION('center_axis',(-4.78919736112813E-16,1.,0.));
#379=DIRECTION('ref_axis',(-1.,-4.78919736112813E-16,0.));
#380=DIRECTION('',(-1.,-4.78919736112813E-16,0.));
#381=DIRECTION('',(1.,-4.78919736112813E-16,0.));
#382=DIRECTION('center_axis',(0.,0.,1.));
#383=DIRECTION('ref_axis',(1.,0.,0.));
#384=DIRECTION('center_axis',(0.,0.,1.));
#385=DIRECTION('ref_axis',(1.,0.,0.));
#386=CARTESIAN_POINT('',(0.,0.,0.));
#387=CARTESIAN_POINT('Origin',(15.,20.,0.));
#388=CARTESIAN_POINT('',(15.,20.,0.));
#389=CARTESIAN_POINT('',(15.,18.2,0.));
#390=CARTESIAN_POINT('',(15.,20.,0.));
#391=CARTESIAN_POINT('',(15.,20.,1000.));
#392=CARTESIAN_POINT('',(15.,20.,0.));
#393=CARTESIAN_POINT('',(15.,18.2,1000.));
#394=CARTESIAN_POINT('',(15.,20.,1000.));
#395=CARTESIAN_POINT('',(15.,18.2,0.));
#396=CARTESIAN_POINT('Origin',(-15.,18.2,0.));
#397=CARTESIAN_POINT('',(-15.,18.2,0.));
#398=CARTESIAN_POINT('',(-15.,18.2,0.));
#399=CARTESIAN_POINT('',(-15.,18.2,1000.));
#400=CARTESIAN_POINT('',(-15.,18.2,1000.));
#401=CARTESIAN_POINT('',(-15.,18.2,0.));
#402=CARTESIAN_POINT('Origin',(-15.,20.,0.));
#403=CARTESIAN_POINT('',(-15.,20.,0.));
#404=CARTESIAN_POINT('',(-15.,20.,0.));
#405=CARTESIAN_POINT('',(-15.,20.,1000.));
#406=CARTESIAN_POINT('',(-15.,20.,1000.));
#407=CARTESIAN_POINT('',(-15.,20.,0.));
#408=CARTESIAN_POINT('Origin',(-1.11022302462516E-15,20.,0.));
#409=CARTESIAN_POINT('',(1.11022302462516E-15,20.,0.));
#410=CARTESIAN_POINT('',(1.11022302462516E-15,20.,1000.));
#411=CARTESIAN_POINT('Origin',(-7.50000000000001,19.1,1000.));
#412=CARTESIAN_POINT('Origin',(-7.50000000000001,19.1,0.));
#413=CARTESIAN_POINT('Origin',(15.,18.,0.));
#414=CARTESIAN_POINT('',(15.,18.,0.));
#415=CARTESIAN_POINT('',(15.,-1.83697019872103E-15,0.));
#416=CARTESIAN_POINT('',(15.,18.,0.));
#417=CARTESIAN_POINT('',(15.,18.,1000.));
#418=CARTESIAN_POINT('',(15.,18.,0.));
#419=CARTESIAN_POINT('',(15.,-1.94289029309402E-15,1000.));
#420=CARTESIAN_POINT('',(15.,18.,1000.));
#421=CARTESIAN_POINT('',(15.,-1.83697019872103E-15,0.));
#422=CARTESIAN_POINT('Origin',(12.75,18.,0.));
#423=CARTESIAN_POINT('',(12.75,18.,0.));
#424=CARTESIAN_POINT('',(12.75,18.,0.));
#425=CARTESIAN_POINT('',(12.75,18.,1000.));
#426=CARTESIAN_POINT('',(12.75,18.,0.));
#427=CARTESIAN_POINT('',(12.75,18.,1000.));
#428=CARTESIAN_POINT('Origin',(12.75,1.5,0.));
#429=CARTESIAN_POINT('',(12.75,1.5,0.));
#430=CARTESIAN_POINT('',(12.75,1.5,0.));
#431=CARTESIAN_POINT('',(12.75,1.5,1000.));
#432=CARTESIAN_POINT('',(12.75,1.5,0.));
#433=CARTESIAN_POINT('',(12.75,1.5,1000.));
#434=CARTESIAN_POINT('Origin',(-15.,-1.83697019872103E-15,0.));
#435=CARTESIAN_POINT('',(-15.,-1.83697019872103E-15,0.));
#436=CARTESIAN_POINT('',(-15.,-1.83697019872103E-15,0.));
#437=CARTESIAN_POINT('',(-15.,-1.94289029309402E-15,1000.));
#438=CARTESIAN_POINT('',(-15.,-1.83697019872103E-15,1000.));
#439=CARTESIAN_POINT('',(-15.,-1.83697019872103E-15,0.));
#440=CARTESIAN_POINT('Origin',(-15.,18.,0.));
#441=CARTESIAN_POINT('',(-15.,18.,0.));
#442=CARTESIAN_POINT('',(-15.,18.,0.));
#443=CARTESIAN_POINT('',(-15.,18.,1000.));
#444=CARTESIAN_POINT('',(-15.,18.,1000.));
#445=CARTESIAN_POINT('',(-15.,18.,0.));
#446=CARTESIAN_POINT('Origin',(-12.75,18.,0.));
#447=CARTESIAN_POINT('',(-12.75,18.,0.));
#448=CARTESIAN_POINT('',(-12.75,18.,0.));
#449=CARTESIAN_POINT('',(-12.75,18.,1000.));
#450=CARTESIAN_POINT('',(-12.75,18.,1000.));
#451=CARTESIAN_POINT('',(-12.75,18.,0.));
#452=CARTESIAN_POINT('Origin',(-12.75,1.5,0.));
#453=CARTESIAN_POINT('',(-12.75,1.5,0.));
#454=CARTESIAN_POINT('',(-12.75,1.5,0.));
#455=CARTESIAN_POINT('',(-12.75,1.5,1000.));
#456=CARTESIAN_POINT('',(-12.75,1.5,1000.));
#457=CARTESIAN_POINT('',(-12.75,1.5,0.));
#458=CARTESIAN_POINT('Origin',(9.25444863418593E-32,1.5,0.));
#459=CARTESIAN_POINT('',(0.,1.5,0.));
#460=CARTESIAN_POINT('',(0.,1.5,1000.));
#461=CARTESIAN_POINT('Origin',(-7.5,9.,1000.));
#462=CARTESIAN_POINT('Origin',(-7.5,9.,0.));
#463=UNCERTAINTY_MEASURE_WITH_UNIT(LENGTH_MEASURE(0.01),#467,
'DISTANCE_ACCURACY_VALUE',
'Maximum model space distance between geometric entities at asserted c
onnectivities');
#464=UNCERTAINTY_MEASURE_WITH_UNIT(LENGTH_MEASURE(0.01),#467,
'DISTANCE_ACCURACY_VALUE',
'Maximum model space distance between geometric entities at asserted c
onnectivities');
#465=(
GEOMETRIC_REPRESENTATION_CONTEXT(3)
GLOBAL_UNCERTAINTY_ASSIGNED_CONTEXT((#463))
GLOBAL_UNIT_ASSIGNED_CONTEXT((#467,#469,#470))
REPRESENTATION_CONTEXT('','3D')
);
#466=(
GEOMETRIC_REPRESENTATION_CONTEXT(3)
GLOBAL_UNCERTAINTY_ASSIGNED_CONTEXT((#464))
GLOBAL_UNIT_ASSIGNED_CONTEXT((#467,#469,#470))
REPRESENTATION_CONTEXT('','3D')
);
#467=(
LENGTH_UNIT()
NAMED_UNIT(*)
SI_UNIT(.MILLI.,.METRE.)
);
#468=(
LENGTH_UNIT()
NAMED_UNIT(*)
SI_UNIT(.CENTI.,.METRE.)
);
#469=(
NAMED_UNIT(*)
PLANE_ANGLE_UNIT()
SI_UNIT($,.RADIAN.)
);
#470=(
NAMED_UNIT(*)
SI_UNIT($,.STERADIAN.)
SOLID_ANGLE_UNIT()
);
#471=SHAPE_DEFINITION_REPRESENTATION(#472,#473);
#472=PRODUCT_DEFINITION_SHAPE('',$,#475);
#473=SHAPE_REPRESENTATION('',(#299),#465);
#474=PRODUCT_DEFINITION_CONTEXT('part definition',#479,'design');
#475=PRODUCT_DEFINITION('UNE-006','Combo_30',#476,#474);
#476=PRODUCT_DEFINITION_FORMATION('',$,#481);
#477=PRODUCT_RELATED_PRODUCT_CATEGORY('Combo_30','Combo_30',(#481));
#478=APPLICATION_PROTOCOL_DEFINITION('international standard',
'automotive_design',2009,#479);
#479=APPLICATION_CONTEXT(
'Core Data for Automotive Mechanical Design Process');
#480=PRODUCT_CONTEXT('part definition',#479,'mechanical');
#481=PRODUCT('UNE-006','Combo_30',$,(#480));
#482=PRESENTATION_STYLE_ASSIGNMENT((#483));
#483=SURFACE_STYLE_USAGE(.BOTH.,#486);
#484=SURFACE_STYLE_RENDERING_WITH_PROPERTIES($,#490,(#485));
#485=SURFACE_STYLE_TRANSPARENT(0.);
#486=SURFACE_SIDE_STYLE('',(#487,#484));
#487=SURFACE_STYLE_FILL_AREA(#488);
#488=FILL_AREA_STYLE('',(#489));
#489=FILL_AREA_STYLE_COLOUR('',#490);
#490=COLOUR_RGB('',0.749019607843137,0.749019607843137,0.749019607843137);
ENDSEC;
END-ISO-10303-21;
