ISO-10303-21;
HEADER;
/* Generated by software containing ST-Developer
 * from STEP Tools, Inc. (www.steptools.com) 
 */

FILE_DESCRIPTION(
/* description */ (''),
/* implementation_level */ '2;1');

FILE_NAME(
/* name */ 
'P:\\Projekte\\PP1292 Unex Dakota LED Profile\\22-Zeichnungen St\X\FCc
klisten\\Anwender_3D-Daten\\3D_Corner_16.stp',
/* time_stamp */ '2021-03-22T15:39:27+01:00',
/* author */ ('sstotter'),
/* organization */ (''),
/* preprocessor_version */ 'ST-DEVELOPER v18.1',
/* originating_system */ 'Autodesk Inventor 2021',
/* authorisation */ '');

FILE_SCHEMA (('AUTOMOTIVE_DESIGN { 1 0 10303 214 3 1 1 }'));
ENDSEC;

DATA;
#10=MECHANICAL_DESIGN_GEOMETRIC_PRESENTATION_REPRESENTATION('',(#13,#14),
#499);
#11=SHAPE_REPRESENTATION_RELATIONSHIP('SRR','None',#506,#12);
#12=ADVANCED_BREP_SHAPE_REPRESENTATION('',(#15,#16),#498);
#13=STYLED_ITEM('',(#515),#15);
#14=STYLED_ITEM('',(#515),#16);
#15=MANIFOLD_SOLID_BREP('Volumenk\X\F6rper1',#306);
#16=MANIFOLD_SOLID_BREP('Volumenk\X\F6rper1',#307);
#17=FACE_OUTER_BOUND('',#34,.T.);
#18=FACE_OUTER_BOUND('',#35,.T.);
#19=FACE_OUTER_BOUND('',#36,.T.);
#20=FACE_OUTER_BOUND('',#37,.T.);
#21=FACE_OUTER_BOUND('',#38,.T.);
#22=FACE_OUTER_BOUND('',#39,.T.);
#23=FACE_OUTER_BOUND('',#40,.T.);
#24=FACE_OUTER_BOUND('',#41,.T.);
#25=FACE_OUTER_BOUND('',#42,.T.);
#26=FACE_OUTER_BOUND('',#43,.T.);
#27=FACE_OUTER_BOUND('',#44,.T.);
#28=FACE_OUTER_BOUND('',#45,.T.);
#29=FACE_OUTER_BOUND('',#46,.T.);
#30=FACE_OUTER_BOUND('',#47,.T.);
#31=FACE_OUTER_BOUND('',#48,.T.);
#32=FACE_OUTER_BOUND('',#49,.T.);
#33=FACE_OUTER_BOUND('',#50,.T.);
#34=EDGE_LOOP('',(#194,#195,#196,#197));
#35=EDGE_LOOP('',(#198,#199,#200,#201));
#36=EDGE_LOOP('',(#202,#203,#204,#205));
#37=EDGE_LOOP('',(#206,#207,#208,#209));
#38=EDGE_LOOP('',(#210,#211,#212,#213));
#39=EDGE_LOOP('',(#214,#215,#216,#217));
#40=EDGE_LOOP('',(#218,#219,#220,#221));
#41=EDGE_LOOP('',(#222,#223,#224,#225,#226,#227,#228));
#42=EDGE_LOOP('',(#229,#230,#231,#232,#233,#234,#235));
#43=EDGE_LOOP('',(#236,#237,#238,#239));
#44=EDGE_LOOP('',(#240,#241,#242,#243));
#45=EDGE_LOOP('',(#244,#245,#246,#247));
#46=EDGE_LOOP('',(#248,#249,#250,#251));
#47=EDGE_LOOP('',(#252,#253,#254,#255));
#48=EDGE_LOOP('',(#256,#257,#258,#259));
#49=EDGE_LOOP('',(#260,#261,#262,#263,#264,#265));
#50=EDGE_LOOP('',(#266,#267,#268,#269,#270,#271));
#51=LINE('',#417,#90);
#52=LINE('',#419,#91);
#53=LINE('',#421,#92);
#54=LINE('',#422,#93);
#55=LINE('',#425,#94);
#56=LINE('',#427,#95);
#57=LINE('',#428,#96);
#58=LINE('',#431,#97);
#59=LINE('',#433,#98);
#60=LINE('',#434,#99);
#61=LINE('',#437,#100);
#62=LINE('',#439,#101);
#63=LINE('',#440,#102);
#64=LINE('',#443,#103);
#65=LINE('',#445,#104);
#66=LINE('',#446,#105);
#67=LINE('',#449,#106);
#68=LINE('',#451,#107);
#69=LINE('',#452,#108);
#70=LINE('',#454,#109);
#71=LINE('',#455,#110);
#72=LINE('',#461,#111);
#73=LINE('',#463,#112);
#74=LINE('',#465,#113);
#75=LINE('',#466,#114);
#76=LINE('',#469,#115);
#77=LINE('',#471,#116);
#78=LINE('',#472,#117);
#79=LINE('',#475,#118);
#80=LINE('',#477,#119);
#81=LINE('',#478,#120);
#82=LINE('',#481,#121);
#83=LINE('',#483,#122);
#84=LINE('',#484,#123);
#85=LINE('',#487,#124);
#86=LINE('',#489,#125);
#87=LINE('',#490,#126);
#88=LINE('',#492,#127);
#89=LINE('',#493,#128);
#90=VECTOR('',#342,10.);
#91=VECTOR('',#343,10.);
#92=VECTOR('',#344,10.);
#93=VECTOR('',#345,10.);
#94=VECTOR('',#348,10.);
#95=VECTOR('',#349,10.);
#96=VECTOR('',#350,10.);
#97=VECTOR('',#353,10.);
#98=VECTOR('',#354,10.);
#99=VECTOR('',#355,10.);
#100=VECTOR('',#358,10.);
#101=VECTOR('',#359,10.);
#102=VECTOR('',#360,10.);
#103=VECTOR('',#363,10.);
#104=VECTOR('',#364,10.);
#105=VECTOR('',#365,10.);
#106=VECTOR('',#368,10.);
#107=VECTOR('',#369,10.);
#108=VECTOR('',#370,10.);
#109=VECTOR('',#373,10.);
#110=VECTOR('',#374,10.);
#111=VECTOR('',#381,10.);
#112=VECTOR('',#382,10.);
#113=VECTOR('',#383,10.);
#114=VECTOR('',#384,10.);
#115=VECTOR('',#387,10.);
#116=VECTOR('',#388,10.);
#117=VECTOR('',#389,10.);
#118=VECTOR('',#392,10.);
#119=VECTOR('',#393,10.);
#120=VECTOR('',#394,10.);
#121=VECTOR('',#397,10.);
#122=VECTOR('',#398,10.);
#123=VECTOR('',#399,10.);
#124=VECTOR('',#402,10.);
#125=VECTOR('',#403,10.);
#126=VECTOR('',#404,10.);
#127=VECTOR('',#407,10.);
#128=VECTOR('',#408,10.);
#129=VERTEX_POINT('',#415);
#130=VERTEX_POINT('',#416);
#131=VERTEX_POINT('',#418);
#132=VERTEX_POINT('',#420);
#133=VERTEX_POINT('',#424);
#134=VERTEX_POINT('',#426);
#135=VERTEX_POINT('',#430);
#136=VERTEX_POINT('',#432);
#137=VERTEX_POINT('',#436);
#138=VERTEX_POINT('',#438);
#139=VERTEX_POINT('',#442);
#140=VERTEX_POINT('',#444);
#141=VERTEX_POINT('',#448);
#142=VERTEX_POINT('',#450);
#143=VERTEX_POINT('',#459);
#144=VERTEX_POINT('',#460);
#145=VERTEX_POINT('',#462);
#146=VERTEX_POINT('',#464);
#147=VERTEX_POINT('',#468);
#148=VERTEX_POINT('',#470);
#149=VERTEX_POINT('',#474);
#150=VERTEX_POINT('',#476);
#151=VERTEX_POINT('',#480);
#152=VERTEX_POINT('',#482);
#153=VERTEX_POINT('',#486);
#154=VERTEX_POINT('',#488);
#155=EDGE_CURVE('',#129,#130,#51,.T.);
#156=EDGE_CURVE('',#130,#131,#52,.T.);
#157=EDGE_CURVE('',#132,#131,#53,.T.);
#158=EDGE_CURVE('',#129,#132,#54,.T.);
#159=EDGE_CURVE('',#133,#129,#55,.T.);
#160=EDGE_CURVE('',#134,#132,#56,.T.);
#161=EDGE_CURVE('',#133,#134,#57,.T.);
#162=EDGE_CURVE('',#135,#133,#58,.T.);
#163=EDGE_CURVE('',#136,#134,#59,.T.);
#164=EDGE_CURVE('',#135,#136,#60,.T.);
#165=EDGE_CURVE('',#137,#135,#61,.T.);
#166=EDGE_CURVE('',#138,#136,#62,.T.);
#167=EDGE_CURVE('',#137,#138,#63,.T.);
#168=EDGE_CURVE('',#139,#137,#64,.T.);
#169=EDGE_CURVE('',#140,#138,#65,.T.);
#170=EDGE_CURVE('',#139,#140,#66,.T.);
#171=EDGE_CURVE('',#141,#139,#67,.T.);
#172=EDGE_CURVE('',#142,#140,#68,.T.);
#173=EDGE_CURVE('',#141,#142,#69,.T.);
#174=EDGE_CURVE('',#130,#141,#70,.T.);
#175=EDGE_CURVE('',#131,#142,#71,.T.);
#176=EDGE_CURVE('',#143,#144,#72,.T.);
#177=EDGE_CURVE('',#144,#145,#73,.T.);
#178=EDGE_CURVE('',#146,#145,#74,.T.);
#179=EDGE_CURVE('',#143,#146,#75,.T.);
#180=EDGE_CURVE('',#147,#143,#76,.T.);
#181=EDGE_CURVE('',#148,#146,#77,.T.);
#182=EDGE_CURVE('',#147,#148,#78,.T.);
#183=EDGE_CURVE('',#149,#147,#79,.T.);
#184=EDGE_CURVE('',#150,#148,#80,.T.);
#185=EDGE_CURVE('',#149,#150,#81,.T.);
#186=EDGE_CURVE('',#151,#149,#82,.T.);
#187=EDGE_CURVE('',#152,#150,#83,.T.);
#188=EDGE_CURVE('',#151,#152,#84,.T.);
#189=EDGE_CURVE('',#153,#151,#85,.T.);
#190=EDGE_CURVE('',#154,#152,#86,.T.);
#191=EDGE_CURVE('',#153,#154,#87,.T.);
#192=EDGE_CURVE('',#144,#153,#88,.T.);
#193=EDGE_CURVE('',#145,#154,#89,.T.);
#194=ORIENTED_EDGE('',*,*,#155,.T.);
#195=ORIENTED_EDGE('',*,*,#156,.T.);
#196=ORIENTED_EDGE('',*,*,#157,.F.);
#197=ORIENTED_EDGE('',*,*,#158,.F.);
#198=ORIENTED_EDGE('',*,*,#159,.T.);
#199=ORIENTED_EDGE('',*,*,#158,.T.);
#200=ORIENTED_EDGE('',*,*,#160,.F.);
#201=ORIENTED_EDGE('',*,*,#161,.F.);
#202=ORIENTED_EDGE('',*,*,#162,.T.);
#203=ORIENTED_EDGE('',*,*,#161,.T.);
#204=ORIENTED_EDGE('',*,*,#163,.F.);
#205=ORIENTED_EDGE('',*,*,#164,.F.);
#206=ORIENTED_EDGE('',*,*,#165,.T.);
#207=ORIENTED_EDGE('',*,*,#164,.T.);
#208=ORIENTED_EDGE('',*,*,#166,.F.);
#209=ORIENTED_EDGE('',*,*,#167,.F.);
#210=ORIENTED_EDGE('',*,*,#168,.T.);
#211=ORIENTED_EDGE('',*,*,#167,.T.);
#212=ORIENTED_EDGE('',*,*,#169,.F.);
#213=ORIENTED_EDGE('',*,*,#170,.F.);
#214=ORIENTED_EDGE('',*,*,#171,.T.);
#215=ORIENTED_EDGE('',*,*,#170,.T.);
#216=ORIENTED_EDGE('',*,*,#172,.F.);
#217=ORIENTED_EDGE('',*,*,#173,.F.);
#218=ORIENTED_EDGE('',*,*,#174,.T.);
#219=ORIENTED_EDGE('',*,*,#173,.T.);
#220=ORIENTED_EDGE('',*,*,#175,.F.);
#221=ORIENTED_EDGE('',*,*,#156,.F.);
#222=ORIENTED_EDGE('',*,*,#175,.T.);
#223=ORIENTED_EDGE('',*,*,#172,.T.);
#224=ORIENTED_EDGE('',*,*,#169,.T.);
#225=ORIENTED_EDGE('',*,*,#166,.T.);
#226=ORIENTED_EDGE('',*,*,#163,.T.);
#227=ORIENTED_EDGE('',*,*,#160,.T.);
#228=ORIENTED_EDGE('',*,*,#157,.T.);
#229=ORIENTED_EDGE('',*,*,#174,.F.);
#230=ORIENTED_EDGE('',*,*,#155,.F.);
#231=ORIENTED_EDGE('',*,*,#159,.F.);
#232=ORIENTED_EDGE('',*,*,#162,.F.);
#233=ORIENTED_EDGE('',*,*,#165,.F.);
#234=ORIENTED_EDGE('',*,*,#168,.F.);
#235=ORIENTED_EDGE('',*,*,#171,.F.);
#236=ORIENTED_EDGE('',*,*,#176,.T.);
#237=ORIENTED_EDGE('',*,*,#177,.T.);
#238=ORIENTED_EDGE('',*,*,#178,.F.);
#239=ORIENTED_EDGE('',*,*,#179,.F.);
#240=ORIENTED_EDGE('',*,*,#180,.T.);
#241=ORIENTED_EDGE('',*,*,#179,.T.);
#242=ORIENTED_EDGE('',*,*,#181,.F.);
#243=ORIENTED_EDGE('',*,*,#182,.F.);
#244=ORIENTED_EDGE('',*,*,#183,.T.);
#245=ORIENTED_EDGE('',*,*,#182,.T.);
#246=ORIENTED_EDGE('',*,*,#184,.F.);
#247=ORIENTED_EDGE('',*,*,#185,.F.);
#248=ORIENTED_EDGE('',*,*,#186,.T.);
#249=ORIENTED_EDGE('',*,*,#185,.T.);
#250=ORIENTED_EDGE('',*,*,#187,.F.);
#251=ORIENTED_EDGE('',*,*,#188,.F.);
#252=ORIENTED_EDGE('',*,*,#189,.T.);
#253=ORIENTED_EDGE('',*,*,#188,.T.);
#254=ORIENTED_EDGE('',*,*,#190,.F.);
#255=ORIENTED_EDGE('',*,*,#191,.F.);
#256=ORIENTED_EDGE('',*,*,#192,.T.);
#257=ORIENTED_EDGE('',*,*,#191,.T.);
#258=ORIENTED_EDGE('',*,*,#193,.F.);
#259=ORIENTED_EDGE('',*,*,#177,.F.);
#260=ORIENTED_EDGE('',*,*,#193,.T.);
#261=ORIENTED_EDGE('',*,*,#190,.T.);
#262=ORIENTED_EDGE('',*,*,#187,.T.);
#263=ORIENTED_EDGE('',*,*,#184,.T.);
#264=ORIENTED_EDGE('',*,*,#181,.T.);
#265=ORIENTED_EDGE('',*,*,#178,.T.);
#266=ORIENTED_EDGE('',*,*,#192,.F.);
#267=ORIENTED_EDGE('',*,*,#176,.F.);
#268=ORIENTED_EDGE('',*,*,#180,.F.);
#269=ORIENTED_EDGE('',*,*,#183,.F.);
#270=ORIENTED_EDGE('',*,*,#186,.F.);
#271=ORIENTED_EDGE('',*,*,#189,.F.);
#272=PLANE('',#321);
#273=PLANE('',#322);
#274=PLANE('',#323);
#275=PLANE('',#324);
#276=PLANE('',#325);
#277=PLANE('',#326);
#278=PLANE('',#327);
#279=PLANE('',#328);
#280=PLANE('',#329);
#281=PLANE('',#330);
#282=PLANE('',#331);
#283=PLANE('',#332);
#284=PLANE('',#333);
#285=PLANE('',#334);
#286=PLANE('',#335);
#287=PLANE('',#336);
#288=PLANE('',#337);
#289=ADVANCED_FACE('',(#17),#272,.T.);
#290=ADVANCED_FACE('',(#18),#273,.T.);
#291=ADVANCED_FACE('',(#19),#274,.T.);
#292=ADVANCED_FACE('',(#20),#275,.T.);
#293=ADVANCED_FACE('',(#21),#276,.T.);
#294=ADVANCED_FACE('',(#22),#277,.T.);
#295=ADVANCED_FACE('',(#23),#278,.T.);
#296=ADVANCED_FACE('',(#24),#279,.T.);
#297=ADVANCED_FACE('',(#25),#280,.F.);
#298=ADVANCED_FACE('',(#26),#281,.T.);
#299=ADVANCED_FACE('',(#27),#282,.T.);
#300=ADVANCED_FACE('',(#28),#283,.T.);
#301=ADVANCED_FACE('',(#29),#284,.T.);
#302=ADVANCED_FACE('',(#30),#285,.T.);
#303=ADVANCED_FACE('',(#31),#286,.T.);
#304=ADVANCED_FACE('',(#32),#287,.T.);
#305=ADVANCED_FACE('',(#33),#288,.F.);
#306=CLOSED_SHELL('',(#289,#290,#291,#292,#293,#294,#295,#296,#297));
#307=CLOSED_SHELL('',(#298,#299,#300,#301,#302,#303,#304,#305));
#308=DERIVED_UNIT_ELEMENT(#310,1.);
#309=DERIVED_UNIT_ELEMENT(#501,3.);
#310=(
MASS_UNIT()
NAMED_UNIT(*)
SI_UNIT($,.GRAM.)
);
#311=DERIVED_UNIT((#308,#309));
#312=MEASURE_REPRESENTATION_ITEM('density measure',
POSITIVE_RATIO_MEASURE(1.),#311);
#313=PROPERTY_DEFINITION_REPRESENTATION(#318,#315);
#314=PROPERTY_DEFINITION_REPRESENTATION(#319,#316);
#315=REPRESENTATION('material name',(#317),#498);
#316=REPRESENTATION('density',(#312),#498);
#317=DESCRIPTIVE_REPRESENTATION_ITEM('Generisch','Generisch');
#318=PROPERTY_DEFINITION('material property','material name',#508);
#319=PROPERTY_DEFINITION('material property','density of part',#508);
#320=AXIS2_PLACEMENT_3D('placement',#413,#338,#339);
#321=AXIS2_PLACEMENT_3D('',#414,#340,#341);
#322=AXIS2_PLACEMENT_3D('',#423,#346,#347);
#323=AXIS2_PLACEMENT_3D('',#429,#351,#352);
#324=AXIS2_PLACEMENT_3D('',#435,#356,#357);
#325=AXIS2_PLACEMENT_3D('',#441,#361,#362);
#326=AXIS2_PLACEMENT_3D('',#447,#366,#367);
#327=AXIS2_PLACEMENT_3D('',#453,#371,#372);
#328=AXIS2_PLACEMENT_3D('',#456,#375,#376);
#329=AXIS2_PLACEMENT_3D('',#457,#377,#378);
#330=AXIS2_PLACEMENT_3D('',#458,#379,#380);
#331=AXIS2_PLACEMENT_3D('',#467,#385,#386);
#332=AXIS2_PLACEMENT_3D('',#473,#390,#391);
#333=AXIS2_PLACEMENT_3D('',#479,#395,#396);
#334=AXIS2_PLACEMENT_3D('',#485,#400,#401);
#335=AXIS2_PLACEMENT_3D('',#491,#405,#406);
#336=AXIS2_PLACEMENT_3D('',#494,#409,#410);
#337=AXIS2_PLACEMENT_3D('',#495,#411,#412);
#338=DIRECTION('axis',(0.,0.,1.));
#339=DIRECTION('refdir',(1.,0.,0.));
#340=DIRECTION('center_axis',(1.83697019872103E-16,-1.,0.));
#341=DIRECTION('ref_axis',(1.,1.83697019872103E-16,0.));
#342=DIRECTION('',(1.,1.83697019872103E-16,0.));
#343=DIRECTION('',(0.,0.,1.));
#344=DIRECTION('',(1.,1.83697019872103E-16,0.));
#345=DIRECTION('',(0.,0.,1.));
#346=DIRECTION('center_axis',(-1.,0.,0.));
#347=DIRECTION('ref_axis',(0.,-1.,0.));
#348=DIRECTION('',(0.,-1.,0.));
#349=DIRECTION('',(0.,-1.,0.));
#350=DIRECTION('',(0.,0.,1.));
#351=DIRECTION('center_axis',(0.,1.,0.));
#352=DIRECTION('ref_axis',(-1.,0.,0.));
#353=DIRECTION('',(-1.,0.,0.));
#354=DIRECTION('',(-1.,0.,0.));
#355=DIRECTION('',(0.,0.,1.));
#356=DIRECTION('center_axis',(1.,8.52102919389418E-17,0.));
#357=DIRECTION('ref_axis',(-8.52102919389418E-17,1.,0.));
#358=DIRECTION('',(-8.52102919389418E-17,1.,0.));
#359=DIRECTION('',(-8.52102919389418E-17,1.,0.));
#360=DIRECTION('',(0.,0.,1.));
#361=DIRECTION('center_axis',(0.707106781186548,0.707106781186547,0.));
#362=DIRECTION('ref_axis',(-0.707106781186547,0.707106781186548,0.));
#363=DIRECTION('',(-0.707106781186547,0.707106781186548,0.));
#364=DIRECTION('',(-0.707106781186547,0.707106781186548,0.));
#365=DIRECTION('',(0.,0.,1.));
#366=DIRECTION('center_axis',(-4.35519269910147E-16,1.,0.));
#367=DIRECTION('ref_axis',(-1.,-4.35519269910147E-16,0.));
#368=DIRECTION('',(-1.,-4.35519269910147E-16,0.));
#369=DIRECTION('',(-1.,-4.35519269910147E-16,0.));
#370=DIRECTION('',(0.,0.,1.));
#371=DIRECTION('center_axis',(1.,0.,0.));
#372=DIRECTION('ref_axis',(0.,1.,0.));
#373=DIRECTION('',(0.,1.,0.));
#374=DIRECTION('',(0.,1.,0.));
#375=DIRECTION('center_axis',(0.,0.,1.));
#376=DIRECTION('ref_axis',(1.,0.,0.));
#377=DIRECTION('center_axis',(0.,0.,1.));
#378=DIRECTION('ref_axis',(1.,0.,0.));
#379=DIRECTION('center_axis',(0.,-1.,0.));
#380=DIRECTION('ref_axis',(1.,0.,0.));
#381=DIRECTION('',(1.,0.,0.));
#382=DIRECTION('',(0.,0.,1.));
#383=DIRECTION('',(1.,0.,0.));
#384=DIRECTION('',(0.,0.,1.));
#385=DIRECTION('center_axis',(-1.,0.,0.));
#386=DIRECTION('ref_axis',(0.,-1.,0.));
#387=DIRECTION('',(0.,-1.,0.));
#388=DIRECTION('',(0.,-1.,0.));
#389=DIRECTION('',(0.,0.,1.));
#390=DIRECTION('center_axis',(3.21804066520773E-16,-1.,0.));
#391=DIRECTION('ref_axis',(1.,3.21804066520773E-16,0.));
#392=DIRECTION('',(1.,3.21804066520773E-16,0.));
#393=DIRECTION('',(1.,3.21804066520773E-16,0.));
#394=DIRECTION('',(0.,0.,1.));
#395=DIRECTION('center_axis',(-1.,0.,0.));
#396=DIRECTION('ref_axis',(0.,-1.,0.));
#397=DIRECTION('',(0.,-1.,0.));
#398=DIRECTION('',(0.,-1.,0.));
#399=DIRECTION('',(0.,0.,1.));
#400=DIRECTION('center_axis',(0.,1.,0.));
#401=DIRECTION('ref_axis',(-1.,0.,0.));
#402=DIRECTION('',(-1.,0.,0.));
#403=DIRECTION('',(-1.,0.,0.));
#404=DIRECTION('',(0.,0.,1.));
#405=DIRECTION('center_axis',(1.,0.,0.));
#406=DIRECTION('ref_axis',(0.,1.,0.));
#407=DIRECTION('',(0.,1.,0.));
#408=DIRECTION('',(0.,1.,0.));
#409=DIRECTION('center_axis',(0.,0.,1.));
#410=DIRECTION('ref_axis',(1.,0.,0.));
#411=DIRECTION('center_axis',(0.,0.,1.));
#412=DIRECTION('ref_axis',(1.,0.,0.));
#413=CARTESIAN_POINT('',(0.,0.,0.));
#414=CARTESIAN_POINT('Origin',(0.,0.,0.));
#415=CARTESIAN_POINT('',(0.,0.,0.));
#416=CARTESIAN_POINT('',(30.,5.51091059616309E-15,0.));
#417=CARTESIAN_POINT('',(0.,0.,0.));
#418=CARTESIAN_POINT('',(30.,5.51091059616309E-15,1000.));
#419=CARTESIAN_POINT('',(30.,5.51091059616309E-15,0.));
#420=CARTESIAN_POINT('',(0.,0.,1000.));
#421=CARTESIAN_POINT('',(0.,0.,1000.));
#422=CARTESIAN_POINT('',(0.,0.,0.));
#423=CARTESIAN_POINT('Origin',(0.,30.,0.));
#424=CARTESIAN_POINT('',(0.,30.,0.));
#425=CARTESIAN_POINT('',(0.,30.,0.));
#426=CARTESIAN_POINT('',(0.,30.,1000.));
#427=CARTESIAN_POINT('',(0.,30.,1000.));
#428=CARTESIAN_POINT('',(0.,30.,0.));
#429=CARTESIAN_POINT('Origin',(1.2,30.,0.));
#430=CARTESIAN_POINT('',(1.2,30.,0.));
#431=CARTESIAN_POINT('',(1.2,30.,0.));
#432=CARTESIAN_POINT('',(1.2,30.,1000.));
#433=CARTESIAN_POINT('',(1.2,30.,1000.));
#434=CARTESIAN_POINT('',(1.2,30.,0.));
#435=CARTESIAN_POINT('Origin',(1.2,15.342135623731,0.));
#436=CARTESIAN_POINT('',(1.2,15.342135623731,0.));
#437=CARTESIAN_POINT('',(1.2,15.342135623731,0.));
#438=CARTESIAN_POINT('',(1.2,15.342135623731,1000.));
#439=CARTESIAN_POINT('',(1.2,15.342135623731,1000.));
#440=CARTESIAN_POINT('',(1.2,15.342135623731,0.));
#441=CARTESIAN_POINT('Origin',(15.3421356237309,1.2,0.));
#442=CARTESIAN_POINT('',(15.3421356237309,1.2,0.));
#443=CARTESIAN_POINT('',(15.3421356237309,1.2,0.));
#444=CARTESIAN_POINT('',(15.3421356237309,1.2,1000.));
#445=CARTESIAN_POINT('',(15.3421356237309,1.2,1000.));
#446=CARTESIAN_POINT('',(15.3421356237309,1.2,0.));
#447=CARTESIAN_POINT('Origin',(30.,1.2,0.));
#448=CARTESIAN_POINT('',(30.,1.2,0.));
#449=CARTESIAN_POINT('',(30.,1.2,0.));
#450=CARTESIAN_POINT('',(30.,1.2,1000.));
#451=CARTESIAN_POINT('',(30.,1.2,1000.));
#452=CARTESIAN_POINT('',(30.,1.2,0.));
#453=CARTESIAN_POINT('Origin',(30.,5.51091059616309E-15,0.));
#454=CARTESIAN_POINT('',(30.,5.55111512312578E-15,0.));
#455=CARTESIAN_POINT('',(30.,5.55111512312578E-15,1000.));
#456=CARTESIAN_POINT('Origin',(15.,15.,1000.));
#457=CARTESIAN_POINT('Origin',(15.,15.,0.));
#458=CARTESIAN_POINT('Origin',(28.9999750190476,1.4,0.));
#459=CARTESIAN_POINT('',(28.9999750190476,1.4,0.));
#460=CARTESIAN_POINT('',(30.,1.4,0.));
#461=CARTESIAN_POINT('',(28.9999750190476,1.4,0.));
#462=CARTESIAN_POINT('',(30.,1.4,1000.));
#463=CARTESIAN_POINT('',(30.,1.4,0.));
#464=CARTESIAN_POINT('',(28.9999750190476,1.4,1000.));
#465=CARTESIAN_POINT('',(28.9999750190476,1.4,1000.));
#466=CARTESIAN_POINT('',(28.9999750190476,1.4,0.));
#467=CARTESIAN_POINT('Origin',(28.9999750190476,28.9999750190476,0.));
#468=CARTESIAN_POINT('',(28.9999750190476,28.9999750190476,0.));
#469=CARTESIAN_POINT('',(28.9999750190476,28.9999750190476,0.));
#470=CARTESIAN_POINT('',(28.9999750190476,28.9999750190476,1000.));
#471=CARTESIAN_POINT('',(28.9999750190476,28.9999750190476,1000.));
#472=CARTESIAN_POINT('',(28.9999750190476,28.9999750190476,0.));
#473=CARTESIAN_POINT('Origin',(1.4,28.9999750190476,0.));
#474=CARTESIAN_POINT('',(1.4,28.9999750190476,0.));
#475=CARTESIAN_POINT('',(1.4,28.9999750190476,0.));
#476=CARTESIAN_POINT('',(1.4,28.9999750190476,1000.));
#477=CARTESIAN_POINT('',(1.4,28.9999750190476,1000.));
#478=CARTESIAN_POINT('',(1.4,28.9999750190476,0.));
#479=CARTESIAN_POINT('Origin',(1.4,30.,0.));
#480=CARTESIAN_POINT('',(1.4,30.,0.));
#481=CARTESIAN_POINT('',(1.4,30.,0.));
#482=CARTESIAN_POINT('',(1.4,30.,1000.));
#483=CARTESIAN_POINT('',(1.4,30.,1000.));
#484=CARTESIAN_POINT('',(1.4,30.,0.));
#485=CARTESIAN_POINT('Origin',(30.,30.,0.));
#486=CARTESIAN_POINT('',(30.,30.,0.));
#487=CARTESIAN_POINT('',(30.,30.,0.));
#488=CARTESIAN_POINT('',(30.,30.,1000.));
#489=CARTESIAN_POINT('',(30.,30.,1000.));
#490=CARTESIAN_POINT('',(30.,30.,0.));
#491=CARTESIAN_POINT('Origin',(30.,1.4,0.));
#492=CARTESIAN_POINT('',(30.,1.4,0.));
#493=CARTESIAN_POINT('',(30.,1.4,1000.));
#494=CARTESIAN_POINT('Origin',(15.7,15.7,1000.));
#495=CARTESIAN_POINT('Origin',(15.7,15.7,0.));
#496=UNCERTAINTY_MEASURE_WITH_UNIT(LENGTH_MEASURE(0.01),#500,
'DISTANCE_ACCURACY_VALUE',
'Maximum model space distance between geometric entities at asserted c
onnectivities');
#497=UNCERTAINTY_MEASURE_WITH_UNIT(LENGTH_MEASURE(0.01),#500,
'DISTANCE_ACCURACY_VALUE',
'Maximum model space distance between geometric entities at asserted c
onnectivities');
#498=(
GEOMETRIC_REPRESENTATION_CONTEXT(3)
GLOBAL_UNCERTAINTY_ASSIGNED_CONTEXT((#496))
GLOBAL_UNIT_ASSIGNED_CONTEXT((#500,#502,#503))
REPRESENTATION_CONTEXT('','3D')
);
#499=(
GEOMETRIC_REPRESENTATION_CONTEXT(3)
GLOBAL_UNCERTAINTY_ASSIGNED_CONTEXT((#497))
GLOBAL_UNIT_ASSIGNED_CONTEXT((#500,#502,#503))
REPRESENTATION_CONTEXT('','3D')
);
#500=(
LENGTH_UNIT()
NAMED_UNIT(*)
SI_UNIT(.MILLI.,.METRE.)
);
#501=(
LENGTH_UNIT()
NAMED_UNIT(*)
SI_UNIT(.CENTI.,.METRE.)
);
#502=(
NAMED_UNIT(*)
PLANE_ANGLE_UNIT()
SI_UNIT($,.RADIAN.)
);
#503=(
NAMED_UNIT(*)
SI_UNIT($,.STERADIAN.)
SOLID_ANGLE_UNIT()
);
#504=SHAPE_DEFINITION_REPRESENTATION(#505,#506);
#505=PRODUCT_DEFINITION_SHAPE('',$,#508);
#506=SHAPE_REPRESENTATION('',(#320),#498);
#507=PRODUCT_DEFINITION_CONTEXT('part definition',#512,'design');
#508=PRODUCT_DEFINITION('UNE-028_100-006-013_30x30_90\X\B0-Winkel',
'Corner_16',#509,#507);
#509=PRODUCT_DEFINITION_FORMATION('',$,#514);
#510=PRODUCT_RELATED_PRODUCT_CATEGORY('Corner_16','Corner_16',(#514));
#511=APPLICATION_PROTOCOL_DEFINITION('international standard',
'automotive_design',2009,#512);
#512=APPLICATION_CONTEXT(
'Core Data for Automotive Mechanical Design Process');
#513=PRODUCT_CONTEXT('part definition',#512,'mechanical');
#514=PRODUCT('UNE-028_100-006-013_30x30_90\X\B0-Winkel','Corner_16',$,(#513));
#515=PRESENTATION_STYLE_ASSIGNMENT((#516));
#516=SURFACE_STYLE_USAGE(.BOTH.,#519);
#517=SURFACE_STYLE_RENDERING_WITH_PROPERTIES($,#523,(#518));
#518=SURFACE_STYLE_TRANSPARENT(0.);
#519=SURFACE_SIDE_STYLE('',(#520,#517));
#520=SURFACE_STYLE_FILL_AREA(#521);
#521=FILL_AREA_STYLE('',(#522));
#522=FILL_AREA_STYLE_COLOUR('',#523);
#523=COLOUR_RGB('',0.749019607843137,0.749019607843137,0.749019607843137);
ENDSEC;
END-ISO-10303-21;
