ISO-10303-21;
HEADER;
/* Generated by software containing ST-Developer
 * from STEP Tools, Inc. (www.steptools.com) 
 */

FILE_DESCRIPTION(
/* description */ (''),
/* implementation_level */ '2;1');

FILE_NAME(
/* name */ 
'P:\\Projekte\\PP1292 Unex Dakota LED Profile\\22-Zeichnungen St\X\FCc
klisten\\Anwender_3D-Daten\\3D_Planar_30.stp',
/* time_stamp */ '2021-03-22T13:42:32+01:00',
/* author */ ('sstotter'),
/* organization */ (''),
/* preprocessor_version */ 'ST-DEVELOPER v18.1',
/* originating_system */ 'Autodesk Inventor 2021',
/* authorisation */ '');

FILE_SCHEMA (('AUTOMOTIVE_DESIGN { 1 0 10303 214 3 1 1 }'));
ENDSEC;

DATA;
#10=MECHANICAL_DESIGN_GEOMETRIC_PRESENTATION_REPRESENTATION('',(#13,#14),
#468);
#11=SHAPE_REPRESENTATION_RELATIONSHIP('SRR','None',#475,#12);
#12=ADVANCED_BREP_SHAPE_REPRESENTATION('',(#18,#19),#467);
#13=STYLED_ITEM('',(#484),#18);
#14=STYLED_ITEM('',(#484),#19);
#15=CIRCLE('',#311,7.01568181818182);
#16=CIRCLE('',#312,7.01568181818182);
#17=CYLINDRICAL_SURFACE('',#310,7.01568181818182);
#18=MANIFOLD_SOLID_BREP('Volumenk\X\F6rper1',#283);
#19=MANIFOLD_SOLID_BREP('Volumenk\X\F6rper1',#284);
#20=FACE_OUTER_BOUND('',#36,.T.);
#21=FACE_OUTER_BOUND('',#37,.T.);
#22=FACE_OUTER_BOUND('',#38,.T.);
#23=FACE_OUTER_BOUND('',#39,.T.);
#24=FACE_OUTER_BOUND('',#40,.T.);
#25=FACE_OUTER_BOUND('',#41,.T.);
#26=FACE_OUTER_BOUND('',#42,.T.);
#27=FACE_OUTER_BOUND('',#43,.T.);
#28=FACE_OUTER_BOUND('',#44,.T.);
#29=FACE_OUTER_BOUND('',#45,.T.);
#30=FACE_OUTER_BOUND('',#46,.T.);
#31=FACE_OUTER_BOUND('',#47,.T.);
#32=FACE_OUTER_BOUND('',#48,.T.);
#33=FACE_OUTER_BOUND('',#49,.T.);
#34=FACE_OUTER_BOUND('',#50,.T.);
#35=FACE_OUTER_BOUND('',#51,.T.);
#36=EDGE_LOOP('',(#180,#181,#182,#183));
#37=EDGE_LOOP('',(#184,#185,#186,#187));
#38=EDGE_LOOP('',(#188,#189,#190,#191));
#39=EDGE_LOOP('',(#192,#193,#194,#195));
#40=EDGE_LOOP('',(#196,#197,#198,#199));
#41=EDGE_LOOP('',(#200,#201,#202,#203));
#42=EDGE_LOOP('',(#204,#205,#206,#207));
#43=EDGE_LOOP('',(#208,#209,#210,#211));
#44=EDGE_LOOP('',(#212,#213,#214,#215,#216,#217,#218,#219));
#45=EDGE_LOOP('',(#220,#221,#222,#223,#224,#225,#226,#227));
#46=EDGE_LOOP('',(#228,#229,#230,#231));
#47=EDGE_LOOP('',(#232,#233,#234,#235));
#48=EDGE_LOOP('',(#236,#237,#238,#239));
#49=EDGE_LOOP('',(#240,#241,#242,#243));
#50=EDGE_LOOP('',(#244,#245,#246,#247));
#51=EDGE_LOOP('',(#248,#249,#250,#251));
#52=LINE('',#392,#86);
#53=LINE('',#394,#87);
#54=LINE('',#396,#88);
#55=LINE('',#397,#89);
#56=LINE('',#400,#90);
#57=LINE('',#402,#91);
#58=LINE('',#403,#92);
#59=LINE('',#406,#93);
#60=LINE('',#408,#94);
#61=LINE('',#409,#95);
#62=LINE('',#412,#96);
#63=LINE('',#414,#97);
#64=LINE('',#415,#98);
#65=LINE('',#418,#99);
#66=LINE('',#420,#100);
#67=LINE('',#421,#101);
#68=LINE('',#424,#102);
#69=LINE('',#426,#103);
#70=LINE('',#427,#104);
#71=LINE('',#430,#105);
#72=LINE('',#432,#106);
#73=LINE('',#433,#107);
#74=LINE('',#435,#108);
#75=LINE('',#436,#109);
#76=LINE('',#442,#110);
#77=LINE('',#444,#111);
#78=LINE('',#446,#112);
#79=LINE('',#447,#113);
#80=LINE('',#451,#114);
#81=LINE('',#453,#115);
#82=LINE('',#455,#116);
#83=LINE('',#456,#117);
#84=LINE('',#461,#118);
#85=LINE('',#462,#119);
#86=VECTOR('',#320,10.);
#87=VECTOR('',#321,10.);
#88=VECTOR('',#322,10.);
#89=VECTOR('',#323,10.);
#90=VECTOR('',#326,10.);
#91=VECTOR('',#327,10.);
#92=VECTOR('',#328,10.);
#93=VECTOR('',#331,10.);
#94=VECTOR('',#332,10.);
#95=VECTOR('',#333,10.);
#96=VECTOR('',#336,10.);
#97=VECTOR('',#337,10.);
#98=VECTOR('',#338,10.);
#99=VECTOR('',#341,10.);
#100=VECTOR('',#342,10.);
#101=VECTOR('',#343,10.);
#102=VECTOR('',#346,10.);
#103=VECTOR('',#347,10.);
#104=VECTOR('',#348,10.);
#105=VECTOR('',#351,10.);
#106=VECTOR('',#352,10.);
#107=VECTOR('',#353,10.);
#108=VECTOR('',#356,10.);
#109=VECTOR('',#357,10.);
#110=VECTOR('',#364,10.);
#111=VECTOR('',#365,10.);
#112=VECTOR('',#366,10.);
#113=VECTOR('',#367,10.);
#114=VECTOR('',#370,10.);
#115=VECTOR('',#371,10.);
#116=VECTOR('',#372,10.);
#117=VECTOR('',#373,10.);
#118=VECTOR('',#382,10.);
#119=VECTOR('',#383,10.);
#120=VERTEX_POINT('',#390);
#121=VERTEX_POINT('',#391);
#122=VERTEX_POINT('',#393);
#123=VERTEX_POINT('',#395);
#124=VERTEX_POINT('',#399);
#125=VERTEX_POINT('',#401);
#126=VERTEX_POINT('',#405);
#127=VERTEX_POINT('',#407);
#128=VERTEX_POINT('',#411);
#129=VERTEX_POINT('',#413);
#130=VERTEX_POINT('',#417);
#131=VERTEX_POINT('',#419);
#132=VERTEX_POINT('',#423);
#133=VERTEX_POINT('',#425);
#134=VERTEX_POINT('',#429);
#135=VERTEX_POINT('',#431);
#136=VERTEX_POINT('',#440);
#137=VERTEX_POINT('',#441);
#138=VERTEX_POINT('',#443);
#139=VERTEX_POINT('',#445);
#140=VERTEX_POINT('',#449);
#141=VERTEX_POINT('',#450);
#142=VERTEX_POINT('',#452);
#143=VERTEX_POINT('',#454);
#144=EDGE_CURVE('',#120,#121,#52,.T.);
#145=EDGE_CURVE('',#120,#122,#53,.T.);
#146=EDGE_CURVE('',#122,#123,#54,.T.);
#147=EDGE_CURVE('',#121,#123,#55,.T.);
#148=EDGE_CURVE('',#124,#120,#56,.T.);
#149=EDGE_CURVE('',#124,#125,#57,.T.);
#150=EDGE_CURVE('',#125,#122,#58,.T.);
#151=EDGE_CURVE('',#126,#124,#59,.T.);
#152=EDGE_CURVE('',#126,#127,#60,.T.);
#153=EDGE_CURVE('',#127,#125,#61,.T.);
#154=EDGE_CURVE('',#128,#121,#62,.T.);
#155=EDGE_CURVE('',#129,#123,#63,.T.);
#156=EDGE_CURVE('',#128,#129,#64,.T.);
#157=EDGE_CURVE('',#130,#128,#65,.T.);
#158=EDGE_CURVE('',#131,#129,#66,.T.);
#159=EDGE_CURVE('',#130,#131,#67,.T.);
#160=EDGE_CURVE('',#132,#130,#68,.T.);
#161=EDGE_CURVE('',#133,#131,#69,.T.);
#162=EDGE_CURVE('',#132,#133,#70,.T.);
#163=EDGE_CURVE('',#134,#132,#71,.T.);
#164=EDGE_CURVE('',#135,#133,#72,.T.);
#165=EDGE_CURVE('',#134,#135,#73,.T.);
#166=EDGE_CURVE('',#126,#134,#74,.T.);
#167=EDGE_CURVE('',#135,#127,#75,.T.);
#168=EDGE_CURVE('',#136,#137,#76,.T.);
#169=EDGE_CURVE('',#136,#138,#77,.T.);
#170=EDGE_CURVE('',#138,#139,#78,.T.);
#171=EDGE_CURVE('',#137,#139,#79,.T.);
#172=EDGE_CURVE('',#140,#141,#80,.T.);
#173=EDGE_CURVE('',#141,#142,#81,.T.);
#174=EDGE_CURVE('',#143,#142,#82,.T.);
#175=EDGE_CURVE('',#140,#143,#83,.T.);
#176=EDGE_CURVE('',#140,#136,#15,.T.);
#177=EDGE_CURVE('',#143,#138,#16,.T.);
#178=EDGE_CURVE('',#141,#137,#84,.T.);
#179=EDGE_CURVE('',#142,#139,#85,.T.);
#180=ORIENTED_EDGE('',*,*,#144,.F.);
#181=ORIENTED_EDGE('',*,*,#145,.T.);
#182=ORIENTED_EDGE('',*,*,#146,.T.);
#183=ORIENTED_EDGE('',*,*,#147,.F.);
#184=ORIENTED_EDGE('',*,*,#148,.F.);
#185=ORIENTED_EDGE('',*,*,#149,.T.);
#186=ORIENTED_EDGE('',*,*,#150,.T.);
#187=ORIENTED_EDGE('',*,*,#145,.F.);
#188=ORIENTED_EDGE('',*,*,#151,.F.);
#189=ORIENTED_EDGE('',*,*,#152,.T.);
#190=ORIENTED_EDGE('',*,*,#153,.T.);
#191=ORIENTED_EDGE('',*,*,#149,.F.);
#192=ORIENTED_EDGE('',*,*,#154,.T.);
#193=ORIENTED_EDGE('',*,*,#147,.T.);
#194=ORIENTED_EDGE('',*,*,#155,.F.);
#195=ORIENTED_EDGE('',*,*,#156,.F.);
#196=ORIENTED_EDGE('',*,*,#157,.T.);
#197=ORIENTED_EDGE('',*,*,#156,.T.);
#198=ORIENTED_EDGE('',*,*,#158,.F.);
#199=ORIENTED_EDGE('',*,*,#159,.F.);
#200=ORIENTED_EDGE('',*,*,#160,.T.);
#201=ORIENTED_EDGE('',*,*,#159,.T.);
#202=ORIENTED_EDGE('',*,*,#161,.F.);
#203=ORIENTED_EDGE('',*,*,#162,.F.);
#204=ORIENTED_EDGE('',*,*,#163,.T.);
#205=ORIENTED_EDGE('',*,*,#162,.T.);
#206=ORIENTED_EDGE('',*,*,#164,.F.);
#207=ORIENTED_EDGE('',*,*,#165,.F.);
#208=ORIENTED_EDGE('',*,*,#166,.T.);
#209=ORIENTED_EDGE('',*,*,#165,.T.);
#210=ORIENTED_EDGE('',*,*,#167,.T.);
#211=ORIENTED_EDGE('',*,*,#152,.F.);
#212=ORIENTED_EDGE('',*,*,#167,.F.);
#213=ORIENTED_EDGE('',*,*,#164,.T.);
#214=ORIENTED_EDGE('',*,*,#161,.T.);
#215=ORIENTED_EDGE('',*,*,#158,.T.);
#216=ORIENTED_EDGE('',*,*,#155,.T.);
#217=ORIENTED_EDGE('',*,*,#146,.F.);
#218=ORIENTED_EDGE('',*,*,#150,.F.);
#219=ORIENTED_EDGE('',*,*,#153,.F.);
#220=ORIENTED_EDGE('',*,*,#166,.F.);
#221=ORIENTED_EDGE('',*,*,#151,.T.);
#222=ORIENTED_EDGE('',*,*,#148,.T.);
#223=ORIENTED_EDGE('',*,*,#144,.T.);
#224=ORIENTED_EDGE('',*,*,#154,.F.);
#225=ORIENTED_EDGE('',*,*,#157,.F.);
#226=ORIENTED_EDGE('',*,*,#160,.F.);
#227=ORIENTED_EDGE('',*,*,#163,.F.);
#228=ORIENTED_EDGE('',*,*,#168,.F.);
#229=ORIENTED_EDGE('',*,*,#169,.T.);
#230=ORIENTED_EDGE('',*,*,#170,.T.);
#231=ORIENTED_EDGE('',*,*,#171,.F.);
#232=ORIENTED_EDGE('',*,*,#172,.T.);
#233=ORIENTED_EDGE('',*,*,#173,.T.);
#234=ORIENTED_EDGE('',*,*,#174,.F.);
#235=ORIENTED_EDGE('',*,*,#175,.F.);
#236=ORIENTED_EDGE('',*,*,#176,.F.);
#237=ORIENTED_EDGE('',*,*,#175,.T.);
#238=ORIENTED_EDGE('',*,*,#177,.T.);
#239=ORIENTED_EDGE('',*,*,#169,.F.);
#240=ORIENTED_EDGE('',*,*,#178,.T.);
#241=ORIENTED_EDGE('',*,*,#171,.T.);
#242=ORIENTED_EDGE('',*,*,#179,.F.);
#243=ORIENTED_EDGE('',*,*,#173,.F.);
#244=ORIENTED_EDGE('',*,*,#179,.T.);
#245=ORIENTED_EDGE('',*,*,#170,.F.);
#246=ORIENTED_EDGE('',*,*,#177,.F.);
#247=ORIENTED_EDGE('',*,*,#174,.T.);
#248=ORIENTED_EDGE('',*,*,#178,.F.);
#249=ORIENTED_EDGE('',*,*,#172,.F.);
#250=ORIENTED_EDGE('',*,*,#176,.T.);
#251=ORIENTED_EDGE('',*,*,#168,.T.);
#252=PLANE('',#298);
#253=PLANE('',#299);
#254=PLANE('',#300);
#255=PLANE('',#301);
#256=PLANE('',#302);
#257=PLANE('',#303);
#258=PLANE('',#304);
#259=PLANE('',#305);
#260=PLANE('',#306);
#261=PLANE('',#307);
#262=PLANE('',#308);
#263=PLANE('',#309);
#264=PLANE('',#313);
#265=PLANE('',#314);
#266=PLANE('',#315);
#267=ADVANCED_FACE('',(#20),#252,.F.);
#268=ADVANCED_FACE('',(#21),#253,.F.);
#269=ADVANCED_FACE('',(#22),#254,.F.);
#270=ADVANCED_FACE('',(#23),#255,.T.);
#271=ADVANCED_FACE('',(#24),#256,.T.);
#272=ADVANCED_FACE('',(#25),#257,.T.);
#273=ADVANCED_FACE('',(#26),#258,.T.);
#274=ADVANCED_FACE('',(#27),#259,.T.);
#275=ADVANCED_FACE('',(#28),#260,.T.);
#276=ADVANCED_FACE('',(#29),#261,.F.);
#277=ADVANCED_FACE('',(#30),#262,.F.);
#278=ADVANCED_FACE('',(#31),#263,.T.);
#279=ADVANCED_FACE('',(#32),#17,.T.);
#280=ADVANCED_FACE('',(#33),#264,.T.);
#281=ADVANCED_FACE('',(#34),#265,.T.);
#282=ADVANCED_FACE('',(#35),#266,.F.);
#283=CLOSED_SHELL('',(#267,#268,#269,#270,#271,#272,#273,#274,#275,#276));
#284=CLOSED_SHELL('',(#277,#278,#279,#280,#281,#282));
#285=DERIVED_UNIT_ELEMENT(#287,1.);
#286=DERIVED_UNIT_ELEMENT(#470,3.);
#287=(
MASS_UNIT()
NAMED_UNIT(*)
SI_UNIT($,.GRAM.)
);
#288=DERIVED_UNIT((#285,#286));
#289=MEASURE_REPRESENTATION_ITEM('density measure',
POSITIVE_RATIO_MEASURE(1.),#288);
#290=PROPERTY_DEFINITION_REPRESENTATION(#295,#292);
#291=PROPERTY_DEFINITION_REPRESENTATION(#296,#293);
#292=REPRESENTATION('material name',(#294),#467);
#293=REPRESENTATION('density',(#289),#467);
#294=DESCRIPTIVE_REPRESENTATION_ITEM('Generisch','Generisch');
#295=PROPERTY_DEFINITION('material property','material name',#477);
#296=PROPERTY_DEFINITION('material property','density of part',#477);
#297=AXIS2_PLACEMENT_3D('placement',#388,#316,#317);
#298=AXIS2_PLACEMENT_3D('',#389,#318,#319);
#299=AXIS2_PLACEMENT_3D('',#398,#324,#325);
#300=AXIS2_PLACEMENT_3D('',#404,#329,#330);
#301=AXIS2_PLACEMENT_3D('',#410,#334,#335);
#302=AXIS2_PLACEMENT_3D('',#416,#339,#340);
#303=AXIS2_PLACEMENT_3D('',#422,#344,#345);
#304=AXIS2_PLACEMENT_3D('',#428,#349,#350);
#305=AXIS2_PLACEMENT_3D('',#434,#354,#355);
#306=AXIS2_PLACEMENT_3D('',#437,#358,#359);
#307=AXIS2_PLACEMENT_3D('',#438,#360,#361);
#308=AXIS2_PLACEMENT_3D('',#439,#362,#363);
#309=AXIS2_PLACEMENT_3D('',#448,#368,#369);
#310=AXIS2_PLACEMENT_3D('',#457,#374,#375);
#311=AXIS2_PLACEMENT_3D('',#458,#376,#377);
#312=AXIS2_PLACEMENT_3D('',#459,#378,#379);
#313=AXIS2_PLACEMENT_3D('',#460,#380,#381);
#314=AXIS2_PLACEMENT_3D('',#463,#384,#385);
#315=AXIS2_PLACEMENT_3D('',#464,#386,#387);
#316=DIRECTION('axis',(0.,0.,1.));
#317=DIRECTION('refdir',(1.,0.,0.));
#318=DIRECTION('center_axis',(-1.,3.1720657846433E-16,0.));
#319=DIRECTION('ref_axis',(-3.1720657846433E-16,-1.,0.));
#320=DIRECTION('',(-3.1720657846433E-16,-1.,0.));
#321=DIRECTION('',(0.,0.,1.));
#322=DIRECTION('',(-3.1720657846433E-16,-1.,0.));
#323=DIRECTION('',(0.,0.,1.));
#324=DIRECTION('center_axis',(0.,-1.,0.));
#325=DIRECTION('ref_axis',(1.,0.,0.));
#326=DIRECTION('',(1.,0.,0.));
#327=DIRECTION('',(0.,0.,1.));
#328=DIRECTION('',(1.,0.,0.));
#329=DIRECTION('center_axis',(1.,-4.1895208476421E-16,0.));
#330=DIRECTION('ref_axis',(4.1895208476421E-16,1.,0.));
#331=DIRECTION('',(4.1895208476421E-16,1.,0.));
#332=DIRECTION('',(0.,0.,1.));
#333=DIRECTION('',(4.1895208476421E-16,1.,0.));
#334=DIRECTION('center_axis',(1.26882631385732E-16,-1.,0.));
#335=DIRECTION('ref_axis',(1.,1.26882631385732E-16,0.));
#336=DIRECTION('',(1.,1.26882631385732E-16,0.));
#337=DIRECTION('',(1.,1.26882631385732E-16,0.));
#338=DIRECTION('',(0.,0.,1.));
#339=DIRECTION('center_axis',(-1.,-3.1720657846433E-16,0.));
#340=DIRECTION('ref_axis',(3.1720657846433E-16,-1.,0.));
#341=DIRECTION('',(3.1720657846433E-16,-1.,0.));
#342=DIRECTION('',(3.1720657846433E-16,-1.,0.));
#343=DIRECTION('',(0.,0.,1.));
#344=DIRECTION('center_axis',(0.,1.,0.));
#345=DIRECTION('ref_axis',(-1.,0.,0.));
#346=DIRECTION('',(-1.,0.,0.));
#347=DIRECTION('',(-1.,0.,0.));
#348=DIRECTION('',(0.,0.,1.));
#349=DIRECTION('center_axis',(1.,4.1895208476421E-16,0.));
#350=DIRECTION('ref_axis',(-4.1895208476421E-16,1.,0.));
#351=DIRECTION('',(-4.1895208476421E-16,1.,0.));
#352=DIRECTION('',(-4.1895208476421E-16,1.,0.));
#353=DIRECTION('',(0.,0.,1.));
#354=DIRECTION('center_axis',(-4.72435329627726E-16,1.,0.));
#355=DIRECTION('ref_axis',(-1.,-4.72435329627726E-16,0.));
#356=DIRECTION('',(-1.,-4.72435329627726E-16,0.));
#357=DIRECTION('',(1.,-4.72435329627726E-16,0.));
#358=DIRECTION('center_axis',(0.,0.,1.));
#359=DIRECTION('ref_axis',(1.,0.,0.));
#360=DIRECTION('center_axis',(0.,0.,1.));
#361=DIRECTION('ref_axis',(1.,0.,0.));
#362=DIRECTION('center_axis',(-1.,0.,0.));
#363=DIRECTION('ref_axis',(0.,-1.,0.));
#364=DIRECTION('',(0.,-1.,0.));
#365=DIRECTION('',(0.,0.,1.));
#366=DIRECTION('',(0.,-1.,0.));
#367=DIRECTION('',(0.,0.,1.));
#368=DIRECTION('center_axis',(-1.,0.,0.));
#369=DIRECTION('ref_axis',(0.,-1.,0.));
#370=DIRECTION('',(0.,-1.,0.));
#371=DIRECTION('',(0.,0.,1.));
#372=DIRECTION('',(0.,-1.,0.));
#373=DIRECTION('',(0.,0.,1.));
#374=DIRECTION('center_axis',(0.,0.,1.));
#375=DIRECTION('ref_axis',(-1.45171426316311E-16,1.,0.));
#376=DIRECTION('center_axis',(0.,0.,-1.));
#377=DIRECTION('ref_axis',(1.45171426316311E-16,1.,0.));
#378=DIRECTION('center_axis',(0.,0.,-1.));
#379=DIRECTION('ref_axis',(1.45171426316311E-16,1.,0.));
#380=DIRECTION('center_axis',(0.,-1.,0.));
#381=DIRECTION('ref_axis',(1.,0.,0.));
#382=DIRECTION('',(1.,0.,0.));
#383=DIRECTION('',(1.,0.,0.));
#384=DIRECTION('center_axis',(0.,0.,1.));
#385=DIRECTION('ref_axis',(1.,0.,0.));
#386=DIRECTION('center_axis',(0.,0.,1.));
#387=DIRECTION('ref_axis',(1.,0.,0.));
#388=CARTESIAN_POINT('',(0.,0.,0.));
#389=CARTESIAN_POINT('Origin',(8.75,7.,0.));
#390=CARTESIAN_POINT('',(8.75,7.,0.));
#391=CARTESIAN_POINT('',(8.75,-1.11022302462516E-15,0.));
#392=CARTESIAN_POINT('',(8.75,7.,0.));
#393=CARTESIAN_POINT('',(8.75,7.,1000.));
#394=CARTESIAN_POINT('',(8.75,7.,0.));
#395=CARTESIAN_POINT('',(8.75,-1.11022302462516E-15,1000.));
#396=CARTESIAN_POINT('',(8.75,7.,1000.));
#397=CARTESIAN_POINT('',(8.75,-1.11022302462516E-15,0.));
#398=CARTESIAN_POINT('Origin',(7.05,7.,0.));
#399=CARTESIAN_POINT('',(7.05,7.,0.));
#400=CARTESIAN_POINT('',(7.05,7.,0.));
#401=CARTESIAN_POINT('',(7.05,7.,1000.));
#402=CARTESIAN_POINT('',(7.05,7.,0.));
#403=CARTESIAN_POINT('',(7.05,7.,1000.));
#404=CARTESIAN_POINT('Origin',(7.05,1.7,0.));
#405=CARTESIAN_POINT('',(7.05,1.7,0.));
#406=CARTESIAN_POINT('',(7.05,1.7,0.));
#407=CARTESIAN_POINT('',(7.05,1.7,1000.));
#408=CARTESIAN_POINT('',(7.05,1.7,0.));
#409=CARTESIAN_POINT('',(7.05,1.7,1000.));
#410=CARTESIAN_POINT('Origin',(-8.75,-1.11022302462516E-15,0.));
#411=CARTESIAN_POINT('',(-8.75,-1.11022302462516E-15,0.));
#412=CARTESIAN_POINT('',(-8.75,-1.11022302462516E-15,0.));
#413=CARTESIAN_POINT('',(-8.75,-1.11022302462516E-15,1000.));
#414=CARTESIAN_POINT('',(-8.75,-1.11022302462516E-15,1000.));
#415=CARTESIAN_POINT('',(-8.75,-1.11022302462516E-15,0.));
#416=CARTESIAN_POINT('Origin',(-8.75,7.,0.));
#417=CARTESIAN_POINT('',(-8.75,7.,0.));
#418=CARTESIAN_POINT('',(-8.75,7.,0.));
#419=CARTESIAN_POINT('',(-8.75,7.,1000.));
#420=CARTESIAN_POINT('',(-8.75,7.,1000.));
#421=CARTESIAN_POINT('',(-8.75,7.,0.));
#422=CARTESIAN_POINT('Origin',(-7.05,7.,0.));
#423=CARTESIAN_POINT('',(-7.05,7.,0.));
#424=CARTESIAN_POINT('',(-7.05,7.,0.));
#425=CARTESIAN_POINT('',(-7.05,7.,1000.));
#426=CARTESIAN_POINT('',(-7.05,7.,1000.));
#427=CARTESIAN_POINT('',(-7.05,7.,0.));
#428=CARTESIAN_POINT('Origin',(-7.05,1.7,0.));
#429=CARTESIAN_POINT('',(-7.05,1.7,0.));
#430=CARTESIAN_POINT('',(-7.05,1.7,0.));
#431=CARTESIAN_POINT('',(-7.05,1.7,1000.));
#432=CARTESIAN_POINT('',(-7.05,1.7,1000.));
#433=CARTESIAN_POINT('',(-7.05,1.7,0.));
#434=CARTESIAN_POINT('Origin',(-1.7305319726404E-32,1.7,0.));
#435=CARTESIAN_POINT('',(0.,1.7,0.));
#436=CARTESIAN_POINT('',(0.,1.7,1000.));
#437=CARTESIAN_POINT('Origin',(-4.375,3.5,1000.));
#438=CARTESIAN_POINT('Origin',(-4.375,3.5,0.));
#439=CARTESIAN_POINT('Origin',(6.85,7.5,0.));
#440=CARTESIAN_POINT('',(6.85,7.5,0.));
#441=CARTESIAN_POINT('',(6.85,6.,0.));
#442=CARTESIAN_POINT('',(6.85,7.5,0.));
#443=CARTESIAN_POINT('',(6.85,7.5,1000.));
#444=CARTESIAN_POINT('',(6.85,7.5,0.));
#445=CARTESIAN_POINT('',(6.85,6.,1000.));
#446=CARTESIAN_POINT('',(6.85,7.5,1000.));
#447=CARTESIAN_POINT('',(6.85,6.,0.));
#448=CARTESIAN_POINT('Origin',(-6.85,7.5,0.));
#449=CARTESIAN_POINT('',(-6.85,7.5,0.));
#450=CARTESIAN_POINT('',(-6.85,6.,0.));
#451=CARTESIAN_POINT('',(-6.85,7.5,0.));
#452=CARTESIAN_POINT('',(-6.85,6.,1000.));
#453=CARTESIAN_POINT('',(-6.85,6.,0.));
#454=CARTESIAN_POINT('',(-6.85,7.5,1000.));
#455=CARTESIAN_POINT('',(-6.85,7.5,1000.));
#456=CARTESIAN_POINT('',(-6.85,7.5,0.));
#457=CARTESIAN_POINT('Origin',(0.,5.98431818181818,0.));
#458=CARTESIAN_POINT('Origin',(0.,5.98431818181818,0.));
#459=CARTESIAN_POINT('Origin',(0.,5.98431818181818,1000.));
#460=CARTESIAN_POINT('Origin',(-6.85,6.,0.));
#461=CARTESIAN_POINT('',(-6.85,6.,0.));
#462=CARTESIAN_POINT('',(-6.85,6.,1000.));
#463=CARTESIAN_POINT('Origin',(-3.425,9.50000000000003,1000.));
#464=CARTESIAN_POINT('Origin',(-3.425,9.50000000000003,0.));
#465=UNCERTAINTY_MEASURE_WITH_UNIT(LENGTH_MEASURE(0.01),#469,
'DISTANCE_ACCURACY_VALUE',
'Maximum model space distance between geometric entities at asserted c
onnectivities');
#466=UNCERTAINTY_MEASURE_WITH_UNIT(LENGTH_MEASURE(0.01),#469,
'DISTANCE_ACCURACY_VALUE',
'Maximum model space distance between geometric entities at asserted c
onnectivities');
#467=(
GEOMETRIC_REPRESENTATION_CONTEXT(3)
GLOBAL_UNCERTAINTY_ASSIGNED_CONTEXT((#465))
GLOBAL_UNIT_ASSIGNED_CONTEXT((#469,#471,#472))
REPRESENTATION_CONTEXT('','3D')
);
#468=(
GEOMETRIC_REPRESENTATION_CONTEXT(3)
GLOBAL_UNCERTAINTY_ASSIGNED_CONTEXT((#466))
GLOBAL_UNIT_ASSIGNED_CONTEXT((#469,#471,#472))
REPRESENTATION_CONTEXT('','3D')
);
#469=(
LENGTH_UNIT()
NAMED_UNIT(*)
SI_UNIT(.MILLI.,.METRE.)
);
#470=(
LENGTH_UNIT()
NAMED_UNIT(*)
SI_UNIT(.CENTI.,.METRE.)
);
#471=(
NAMED_UNIT(*)
PLANE_ANGLE_UNIT()
SI_UNIT($,.RADIAN.)
);
#472=(
NAMED_UNIT(*)
SI_UNIT($,.STERADIAN.)
SOLID_ANGLE_UNIT()
);
#473=SHAPE_DEFINITION_REPRESENTATION(#474,#475);
#474=PRODUCT_DEFINITION_SHAPE('',$,#477);
#475=SHAPE_REPRESENTATION('',(#297),#467);
#476=PRODUCT_DEFINITION_CONTEXT('part definition',#481,'design');
#477=PRODUCT_DEFINITION('UNE-002_359-175-012_17-5x13','Planar_30',#478,
#476);
#478=PRODUCT_DEFINITION_FORMATION('',$,#483);
#479=PRODUCT_RELATED_PRODUCT_CATEGORY('Planar_30','Planar_30',(#483));
#480=APPLICATION_PROTOCOL_DEFINITION('international standard',
'automotive_design',2009,#481);
#481=APPLICATION_CONTEXT(
'Core Data for Automotive Mechanical Design Process');
#482=PRODUCT_CONTEXT('part definition',#481,'mechanical');
#483=PRODUCT('UNE-002_359-175-012_17-5x13','Planar_30',$,(#482));
#484=PRESENTATION_STYLE_ASSIGNMENT((#485));
#485=SURFACE_STYLE_USAGE(.BOTH.,#488);
#486=SURFACE_STYLE_RENDERING_WITH_PROPERTIES($,#492,(#487));
#487=SURFACE_STYLE_TRANSPARENT(0.);
#488=SURFACE_SIDE_STYLE('',(#489,#486));
#489=SURFACE_STYLE_FILL_AREA(#490);
#490=FILL_AREA_STYLE('',(#491));
#491=FILL_AREA_STYLE_COLOUR('',#492);
#492=COLOUR_RGB('',0.749019607843137,0.749019607843137,0.749019607843137);
ENDSEC;
END-ISO-10303-21;
