ISO-10303-21;
HEADER;
/* Generated by software containing ST-Developer
 * from STEP Tools, Inc. (www.steptools.com) 
 */

FILE_DESCRIPTION(
/* description */ (''),
/* implementation_level */ '2;1');

FILE_NAME(
/* name */ 
'P:\\Projekte\\PP1292 Unex Dakota LED Profile\\22-Zeichnungen St\X\FCc
klisten\\Anwender_3D-Daten\\3D_Bow.stp',
/* time_stamp */ '2021-03-22T14:30:03+01:00',
/* author */ ('sstotter'),
/* organization */ (''),
/* preprocessor_version */ 'ST-DEVELOPER v18.1',
/* originating_system */ 'Autodesk Inventor 2021',
/* authorisation */ '');

FILE_SCHEMA (('AUTOMOTIVE_DESIGN { 1 0 10303 214 3 1 1 }'));
ENDSEC;

DATA;
#10=MECHANICAL_DESIGN_GEOMETRIC_PRESENTATION_REPRESENTATION('',(#13,#14),
#602);
#11=SHAPE_REPRESENTATION_RELATIONSHIP('SRR','None',#609,#12);
#12=ADVANCED_BREP_SHAPE_REPRESENTATION('',(#15,#16),#601);
#13=STYLED_ITEM('',(#618),#15);
#14=STYLED_ITEM('',(#618),#16);
#15=MANIFOLD_SOLID_BREP('Volumenk\X\F6rper1',#365);
#16=MANIFOLD_SOLID_BREP('Volumenk\X\F6rper1',#366);
#17=CIRCLE('',#387,11.416875);
#18=CIRCLE('',#388,11.416875);
#19=CIRCLE('',#390,10.416875);
#20=CIRCLE('',#391,10.416875);
#21=CYLINDRICAL_SURFACE('',#386,11.416875);
#22=CYLINDRICAL_SURFACE('',#389,10.416875);
#23=FACE_OUTER_BOUND('',#43,.T.);
#24=FACE_OUTER_BOUND('',#44,.T.);
#25=FACE_OUTER_BOUND('',#45,.T.);
#26=FACE_OUTER_BOUND('',#46,.T.);
#27=FACE_OUTER_BOUND('',#47,.T.);
#28=FACE_OUTER_BOUND('',#48,.T.);
#29=FACE_OUTER_BOUND('',#49,.T.);
#30=FACE_OUTER_BOUND('',#50,.T.);
#31=FACE_OUTER_BOUND('',#51,.T.);
#32=FACE_OUTER_BOUND('',#52,.T.);
#33=FACE_OUTER_BOUND('',#53,.T.);
#34=FACE_OUTER_BOUND('',#54,.T.);
#35=FACE_OUTER_BOUND('',#55,.T.);
#36=FACE_OUTER_BOUND('',#56,.T.);
#37=FACE_OUTER_BOUND('',#57,.T.);
#38=FACE_OUTER_BOUND('',#58,.T.);
#39=FACE_OUTER_BOUND('',#59,.T.);
#40=FACE_OUTER_BOUND('',#60,.T.);
#41=FACE_OUTER_BOUND('',#61,.T.);
#42=FACE_OUTER_BOUND('',#62,.T.);
#43=EDGE_LOOP('',(#231,#232,#233,#234));
#44=EDGE_LOOP('',(#235,#236,#237,#238));
#45=EDGE_LOOP('',(#239,#240,#241,#242));
#46=EDGE_LOOP('',(#243,#244,#245,#246));
#47=EDGE_LOOP('',(#247,#248,#249,#250));
#48=EDGE_LOOP('',(#251,#252,#253,#254));
#49=EDGE_LOOP('',(#255,#256,#257,#258));
#50=EDGE_LOOP('',(#259,#260,#261,#262));
#51=EDGE_LOOP('',(#263,#264,#265,#266,#267,#268,#269,#270));
#52=EDGE_LOOP('',(#271,#272,#273,#274,#275,#276,#277,#278));
#53=EDGE_LOOP('',(#279,#280,#281,#282));
#54=EDGE_LOOP('',(#283,#284,#285,#286));
#55=EDGE_LOOP('',(#287,#288,#289,#290));
#56=EDGE_LOOP('',(#291,#292,#293,#294));
#57=EDGE_LOOP('',(#295,#296,#297,#298));
#58=EDGE_LOOP('',(#299,#300,#301,#302));
#59=EDGE_LOOP('',(#303,#304,#305,#306));
#60=EDGE_LOOP('',(#307,#308,#309,#310));
#61=EDGE_LOOP('',(#311,#312,#313,#314,#315,#316,#317,#318));
#62=EDGE_LOOP('',(#319,#320,#321,#322,#323,#324,#325,#326));
#63=LINE('',#502,#107);
#64=LINE('',#504,#108);
#65=LINE('',#506,#109);
#66=LINE('',#507,#110);
#67=LINE('',#510,#111);
#68=LINE('',#512,#112);
#69=LINE('',#513,#113);
#70=LINE('',#516,#114);
#71=LINE('',#518,#115);
#72=LINE('',#519,#116);
#73=LINE('',#523,#117);
#74=LINE('',#525,#118);
#75=LINE('',#527,#119);
#76=LINE('',#528,#120);
#77=LINE('',#531,#121);
#78=LINE('',#533,#122);
#79=LINE('',#534,#123);
#80=LINE('',#537,#124);
#81=LINE('',#539,#125);
#82=LINE('',#540,#126);
#83=LINE('',#552,#127);
#84=LINE('',#554,#128);
#85=LINE('',#556,#129);
#86=LINE('',#557,#130);
#87=LINE('',#560,#131);
#88=LINE('',#562,#132);
#89=LINE('',#563,#133);
#90=LINE('',#566,#134);
#91=LINE('',#568,#135);
#92=LINE('',#569,#136);
#93=LINE('',#572,#137);
#94=LINE('',#574,#138);
#95=LINE('',#575,#139);
#96=LINE('',#578,#140);
#97=LINE('',#580,#141);
#98=LINE('',#581,#142);
#99=LINE('',#584,#143);
#100=LINE('',#586,#144);
#101=LINE('',#587,#145);
#102=LINE('',#590,#146);
#103=LINE('',#592,#147);
#104=LINE('',#593,#148);
#105=LINE('',#595,#149);
#106=LINE('',#596,#150);
#107=VECTOR('',#408,10.);
#108=VECTOR('',#409,10.);
#109=VECTOR('',#410,10.);
#110=VECTOR('',#411,10.);
#111=VECTOR('',#414,10.);
#112=VECTOR('',#415,10.);
#113=VECTOR('',#416,10.);
#114=VECTOR('',#419,10.);
#115=VECTOR('',#420,10.);
#116=VECTOR('',#421,10.);
#117=VECTOR('',#424,10.);
#118=VECTOR('',#425,10.);
#119=VECTOR('',#426,10.);
#120=VECTOR('',#427,10.);
#121=VECTOR('',#430,10.);
#122=VECTOR('',#431,10.);
#123=VECTOR('',#432,10.);
#124=VECTOR('',#435,10.);
#125=VECTOR('',#436,10.);
#126=VECTOR('',#437,10.);
#127=VECTOR('',#456,10.);
#128=VECTOR('',#457,10.);
#129=VECTOR('',#458,10.);
#130=VECTOR('',#459,10.);
#131=VECTOR('',#462,10.);
#132=VECTOR('',#463,10.);
#133=VECTOR('',#464,10.);
#134=VECTOR('',#467,10.);
#135=VECTOR('',#468,10.);
#136=VECTOR('',#469,10.);
#137=VECTOR('',#472,10.);
#138=VECTOR('',#473,10.);
#139=VECTOR('',#474,10.);
#140=VECTOR('',#477,10.);
#141=VECTOR('',#478,10.);
#142=VECTOR('',#479,10.);
#143=VECTOR('',#482,10.);
#144=VECTOR('',#483,10.);
#145=VECTOR('',#484,10.);
#146=VECTOR('',#487,10.);
#147=VECTOR('',#488,10.);
#148=VECTOR('',#489,10.);
#149=VECTOR('',#492,10.);
#150=VECTOR('',#493,10.);
#151=VERTEX_POINT('',#500);
#152=VERTEX_POINT('',#501);
#153=VERTEX_POINT('',#503);
#154=VERTEX_POINT('',#505);
#155=VERTEX_POINT('',#509);
#156=VERTEX_POINT('',#511);
#157=VERTEX_POINT('',#515);
#158=VERTEX_POINT('',#517);
#159=VERTEX_POINT('',#521);
#160=VERTEX_POINT('',#522);
#161=VERTEX_POINT('',#524);
#162=VERTEX_POINT('',#526);
#163=VERTEX_POINT('',#530);
#164=VERTEX_POINT('',#532);
#165=VERTEX_POINT('',#536);
#166=VERTEX_POINT('',#538);
#167=VERTEX_POINT('',#550);
#168=VERTEX_POINT('',#551);
#169=VERTEX_POINT('',#553);
#170=VERTEX_POINT('',#555);
#171=VERTEX_POINT('',#559);
#172=VERTEX_POINT('',#561);
#173=VERTEX_POINT('',#565);
#174=VERTEX_POINT('',#567);
#175=VERTEX_POINT('',#571);
#176=VERTEX_POINT('',#573);
#177=VERTEX_POINT('',#577);
#178=VERTEX_POINT('',#579);
#179=VERTEX_POINT('',#583);
#180=VERTEX_POINT('',#585);
#181=VERTEX_POINT('',#589);
#182=VERTEX_POINT('',#591);
#183=EDGE_CURVE('',#151,#152,#63,.T.);
#184=EDGE_CURVE('',#151,#153,#64,.T.);
#185=EDGE_CURVE('',#153,#154,#65,.T.);
#186=EDGE_CURVE('',#152,#154,#66,.T.);
#187=EDGE_CURVE('',#155,#151,#67,.T.);
#188=EDGE_CURVE('',#155,#156,#68,.T.);
#189=EDGE_CURVE('',#156,#153,#69,.T.);
#190=EDGE_CURVE('',#157,#155,#70,.T.);
#191=EDGE_CURVE('',#157,#158,#71,.T.);
#192=EDGE_CURVE('',#158,#156,#72,.T.);
#193=EDGE_CURVE('',#159,#160,#73,.T.);
#194=EDGE_CURVE('',#160,#161,#74,.T.);
#195=EDGE_CURVE('',#162,#161,#75,.T.);
#196=EDGE_CURVE('',#159,#162,#76,.T.);
#197=EDGE_CURVE('',#163,#159,#77,.T.);
#198=EDGE_CURVE('',#164,#162,#78,.T.);
#199=EDGE_CURVE('',#163,#164,#79,.T.);
#200=EDGE_CURVE('',#165,#163,#80,.T.);
#201=EDGE_CURVE('',#166,#164,#81,.T.);
#202=EDGE_CURVE('',#165,#166,#82,.T.);
#203=EDGE_CURVE('',#165,#157,#17,.T.);
#204=EDGE_CURVE('',#166,#158,#18,.T.);
#205=EDGE_CURVE('',#160,#152,#19,.T.);
#206=EDGE_CURVE('',#161,#154,#20,.T.);
#207=EDGE_CURVE('',#167,#168,#83,.T.);
#208=EDGE_CURVE('',#167,#169,#84,.T.);
#209=EDGE_CURVE('',#169,#170,#85,.T.);
#210=EDGE_CURVE('',#168,#170,#86,.T.);
#211=EDGE_CURVE('',#171,#167,#87,.T.);
#212=EDGE_CURVE('',#171,#172,#88,.T.);
#213=EDGE_CURVE('',#172,#169,#89,.T.);
#214=EDGE_CURVE('',#173,#171,#90,.T.);
#215=EDGE_CURVE('',#173,#174,#91,.T.);
#216=EDGE_CURVE('',#174,#172,#92,.T.);
#217=EDGE_CURVE('',#175,#168,#93,.T.);
#218=EDGE_CURVE('',#176,#170,#94,.T.);
#219=EDGE_CURVE('',#175,#176,#95,.T.);
#220=EDGE_CURVE('',#177,#175,#96,.T.);
#221=EDGE_CURVE('',#178,#176,#97,.T.);
#222=EDGE_CURVE('',#177,#178,#98,.T.);
#223=EDGE_CURVE('',#179,#177,#99,.T.);
#224=EDGE_CURVE('',#180,#178,#100,.T.);
#225=EDGE_CURVE('',#179,#180,#101,.T.);
#226=EDGE_CURVE('',#181,#179,#102,.T.);
#227=EDGE_CURVE('',#182,#180,#103,.T.);
#228=EDGE_CURVE('',#181,#182,#104,.T.);
#229=EDGE_CURVE('',#173,#181,#105,.T.);
#230=EDGE_CURVE('',#182,#174,#106,.T.);
#231=ORIENTED_EDGE('',*,*,#183,.F.);
#232=ORIENTED_EDGE('',*,*,#184,.T.);
#233=ORIENTED_EDGE('',*,*,#185,.T.);
#234=ORIENTED_EDGE('',*,*,#186,.F.);
#235=ORIENTED_EDGE('',*,*,#187,.F.);
#236=ORIENTED_EDGE('',*,*,#188,.T.);
#237=ORIENTED_EDGE('',*,*,#189,.T.);
#238=ORIENTED_EDGE('',*,*,#184,.F.);
#239=ORIENTED_EDGE('',*,*,#190,.F.);
#240=ORIENTED_EDGE('',*,*,#191,.T.);
#241=ORIENTED_EDGE('',*,*,#192,.T.);
#242=ORIENTED_EDGE('',*,*,#188,.F.);
#243=ORIENTED_EDGE('',*,*,#193,.T.);
#244=ORIENTED_EDGE('',*,*,#194,.T.);
#245=ORIENTED_EDGE('',*,*,#195,.F.);
#246=ORIENTED_EDGE('',*,*,#196,.F.);
#247=ORIENTED_EDGE('',*,*,#197,.T.);
#248=ORIENTED_EDGE('',*,*,#196,.T.);
#249=ORIENTED_EDGE('',*,*,#198,.F.);
#250=ORIENTED_EDGE('',*,*,#199,.F.);
#251=ORIENTED_EDGE('',*,*,#200,.T.);
#252=ORIENTED_EDGE('',*,*,#199,.T.);
#253=ORIENTED_EDGE('',*,*,#201,.F.);
#254=ORIENTED_EDGE('',*,*,#202,.F.);
#255=ORIENTED_EDGE('',*,*,#203,.F.);
#256=ORIENTED_EDGE('',*,*,#202,.T.);
#257=ORIENTED_EDGE('',*,*,#204,.T.);
#258=ORIENTED_EDGE('',*,*,#191,.F.);
#259=ORIENTED_EDGE('',*,*,#205,.T.);
#260=ORIENTED_EDGE('',*,*,#186,.T.);
#261=ORIENTED_EDGE('',*,*,#206,.F.);
#262=ORIENTED_EDGE('',*,*,#194,.F.);
#263=ORIENTED_EDGE('',*,*,#206,.T.);
#264=ORIENTED_EDGE('',*,*,#185,.F.);
#265=ORIENTED_EDGE('',*,*,#189,.F.);
#266=ORIENTED_EDGE('',*,*,#192,.F.);
#267=ORIENTED_EDGE('',*,*,#204,.F.);
#268=ORIENTED_EDGE('',*,*,#201,.T.);
#269=ORIENTED_EDGE('',*,*,#198,.T.);
#270=ORIENTED_EDGE('',*,*,#195,.T.);
#271=ORIENTED_EDGE('',*,*,#205,.F.);
#272=ORIENTED_EDGE('',*,*,#193,.F.);
#273=ORIENTED_EDGE('',*,*,#197,.F.);
#274=ORIENTED_EDGE('',*,*,#200,.F.);
#275=ORIENTED_EDGE('',*,*,#203,.T.);
#276=ORIENTED_EDGE('',*,*,#190,.T.);
#277=ORIENTED_EDGE('',*,*,#187,.T.);
#278=ORIENTED_EDGE('',*,*,#183,.T.);
#279=ORIENTED_EDGE('',*,*,#207,.F.);
#280=ORIENTED_EDGE('',*,*,#208,.T.);
#281=ORIENTED_EDGE('',*,*,#209,.T.);
#282=ORIENTED_EDGE('',*,*,#210,.F.);
#283=ORIENTED_EDGE('',*,*,#211,.F.);
#284=ORIENTED_EDGE('',*,*,#212,.T.);
#285=ORIENTED_EDGE('',*,*,#213,.T.);
#286=ORIENTED_EDGE('',*,*,#208,.F.);
#287=ORIENTED_EDGE('',*,*,#214,.F.);
#288=ORIENTED_EDGE('',*,*,#215,.T.);
#289=ORIENTED_EDGE('',*,*,#216,.T.);
#290=ORIENTED_EDGE('',*,*,#212,.F.);
#291=ORIENTED_EDGE('',*,*,#217,.T.);
#292=ORIENTED_EDGE('',*,*,#210,.T.);
#293=ORIENTED_EDGE('',*,*,#218,.F.);
#294=ORIENTED_EDGE('',*,*,#219,.F.);
#295=ORIENTED_EDGE('',*,*,#220,.T.);
#296=ORIENTED_EDGE('',*,*,#219,.T.);
#297=ORIENTED_EDGE('',*,*,#221,.F.);
#298=ORIENTED_EDGE('',*,*,#222,.F.);
#299=ORIENTED_EDGE('',*,*,#223,.T.);
#300=ORIENTED_EDGE('',*,*,#222,.T.);
#301=ORIENTED_EDGE('',*,*,#224,.F.);
#302=ORIENTED_EDGE('',*,*,#225,.F.);
#303=ORIENTED_EDGE('',*,*,#226,.T.);
#304=ORIENTED_EDGE('',*,*,#225,.T.);
#305=ORIENTED_EDGE('',*,*,#227,.F.);
#306=ORIENTED_EDGE('',*,*,#228,.F.);
#307=ORIENTED_EDGE('',*,*,#229,.T.);
#308=ORIENTED_EDGE('',*,*,#228,.T.);
#309=ORIENTED_EDGE('',*,*,#230,.T.);
#310=ORIENTED_EDGE('',*,*,#215,.F.);
#311=ORIENTED_EDGE('',*,*,#230,.F.);
#312=ORIENTED_EDGE('',*,*,#227,.T.);
#313=ORIENTED_EDGE('',*,*,#224,.T.);
#314=ORIENTED_EDGE('',*,*,#221,.T.);
#315=ORIENTED_EDGE('',*,*,#218,.T.);
#316=ORIENTED_EDGE('',*,*,#209,.F.);
#317=ORIENTED_EDGE('',*,*,#213,.F.);
#318=ORIENTED_EDGE('',*,*,#216,.F.);
#319=ORIENTED_EDGE('',*,*,#229,.F.);
#320=ORIENTED_EDGE('',*,*,#214,.T.);
#321=ORIENTED_EDGE('',*,*,#211,.T.);
#322=ORIENTED_EDGE('',*,*,#207,.T.);
#323=ORIENTED_EDGE('',*,*,#217,.F.);
#324=ORIENTED_EDGE('',*,*,#220,.F.);
#325=ORIENTED_EDGE('',*,*,#223,.F.);
#326=ORIENTED_EDGE('',*,*,#226,.F.);
#327=PLANE('',#380);
#328=PLANE('',#381);
#329=PLANE('',#382);
#330=PLANE('',#383);
#331=PLANE('',#384);
#332=PLANE('',#385);
#333=PLANE('',#392);
#334=PLANE('',#393);
#335=PLANE('',#394);
#336=PLANE('',#395);
#337=PLANE('',#396);
#338=PLANE('',#397);
#339=PLANE('',#398);
#340=PLANE('',#399);
#341=PLANE('',#400);
#342=PLANE('',#401);
#343=PLANE('',#402);
#344=PLANE('',#403);
#345=ADVANCED_FACE('',(#23),#327,.F.);
#346=ADVANCED_FACE('',(#24),#328,.F.);
#347=ADVANCED_FACE('',(#25),#329,.F.);
#348=ADVANCED_FACE('',(#26),#330,.T.);
#349=ADVANCED_FACE('',(#27),#331,.T.);
#350=ADVANCED_FACE('',(#28),#332,.T.);
#351=ADVANCED_FACE('',(#29),#21,.T.);
#352=ADVANCED_FACE('',(#30),#22,.F.);
#353=ADVANCED_FACE('',(#31),#333,.T.);
#354=ADVANCED_FACE('',(#32),#334,.F.);
#355=ADVANCED_FACE('',(#33),#335,.F.);
#356=ADVANCED_FACE('',(#34),#336,.F.);
#357=ADVANCED_FACE('',(#35),#337,.F.);
#358=ADVANCED_FACE('',(#36),#338,.T.);
#359=ADVANCED_FACE('',(#37),#339,.T.);
#360=ADVANCED_FACE('',(#38),#340,.T.);
#361=ADVANCED_FACE('',(#39),#341,.T.);
#362=ADVANCED_FACE('',(#40),#342,.T.);
#363=ADVANCED_FACE('',(#41),#343,.T.);
#364=ADVANCED_FACE('',(#42),#344,.F.);
#365=CLOSED_SHELL('',(#345,#346,#347,#348,#349,#350,#351,#352,#353,#354));
#366=CLOSED_SHELL('',(#355,#356,#357,#358,#359,#360,#361,#362,#363,#364));
#367=DERIVED_UNIT_ELEMENT(#369,1.);
#368=DERIVED_UNIT_ELEMENT(#604,3.);
#369=(
MASS_UNIT()
NAMED_UNIT(*)
SI_UNIT($,.GRAM.)
);
#370=DERIVED_UNIT((#367,#368));
#371=MEASURE_REPRESENTATION_ITEM('density measure',
POSITIVE_RATIO_MEASURE(1.),#370);
#372=PROPERTY_DEFINITION_REPRESENTATION(#377,#374);
#373=PROPERTY_DEFINITION_REPRESENTATION(#378,#375);
#374=REPRESENTATION('material name',(#376),#601);
#375=REPRESENTATION('density',(#371),#601);
#376=DESCRIPTIVE_REPRESENTATION_ITEM('Generisch','Generisch');
#377=PROPERTY_DEFINITION('material property','material name',#611);
#378=PROPERTY_DEFINITION('material property','density of part',#611);
#379=AXIS2_PLACEMENT_3D('placement',#498,#404,#405);
#380=AXIS2_PLACEMENT_3D('',#499,#406,#407);
#381=AXIS2_PLACEMENT_3D('',#508,#412,#413);
#382=AXIS2_PLACEMENT_3D('',#514,#417,#418);
#383=AXIS2_PLACEMENT_3D('',#520,#422,#423);
#384=AXIS2_PLACEMENT_3D('',#529,#428,#429);
#385=AXIS2_PLACEMENT_3D('',#535,#433,#434);
#386=AXIS2_PLACEMENT_3D('',#541,#438,#439);
#387=AXIS2_PLACEMENT_3D('',#542,#440,#441);
#388=AXIS2_PLACEMENT_3D('',#543,#442,#443);
#389=AXIS2_PLACEMENT_3D('',#544,#444,#445);
#390=AXIS2_PLACEMENT_3D('',#545,#446,#447);
#391=AXIS2_PLACEMENT_3D('',#546,#448,#449);
#392=AXIS2_PLACEMENT_3D('',#547,#450,#451);
#393=AXIS2_PLACEMENT_3D('',#548,#452,#453);
#394=AXIS2_PLACEMENT_3D('',#549,#454,#455);
#395=AXIS2_PLACEMENT_3D('',#558,#460,#461);
#396=AXIS2_PLACEMENT_3D('',#564,#465,#466);
#397=AXIS2_PLACEMENT_3D('',#570,#470,#471);
#398=AXIS2_PLACEMENT_3D('',#576,#475,#476);
#399=AXIS2_PLACEMENT_3D('',#582,#480,#481);
#400=AXIS2_PLACEMENT_3D('',#588,#485,#486);
#401=AXIS2_PLACEMENT_3D('',#594,#490,#491);
#402=AXIS2_PLACEMENT_3D('',#597,#494,#495);
#403=AXIS2_PLACEMENT_3D('',#598,#496,#497);
#404=DIRECTION('axis',(0.,0.,1.));
#405=DIRECTION('refdir',(1.,0.,0.));
#406=DIRECTION('center_axis',(1.,-4.04969871929041E-16,0.));
#407=DIRECTION('ref_axis',(4.04969871929041E-16,1.,0.));
#408=DIRECTION('',(4.04969871929041E-16,1.,0.));
#409=DIRECTION('',(0.,0.,1.));
#410=DIRECTION('',(4.04969871929041E-16,1.,0.));
#411=DIRECTION('',(0.,0.,1.));
#412=DIRECTION('center_axis',(0.,1.,0.));
#413=DIRECTION('ref_axis',(-1.,0.,0.));
#414=DIRECTION('',(-1.,0.,0.));
#415=DIRECTION('',(0.,0.,1.));
#416=DIRECTION('',(-1.,0.,0.));
#417=DIRECTION('center_axis',(-1.,0.,0.));
#418=DIRECTION('ref_axis',(0.,-1.,0.));
#419=DIRECTION('',(0.,-1.,0.));
#420=DIRECTION('',(0.,0.,1.));
#421=DIRECTION('',(0.,-1.,0.));
#422=DIRECTION('center_axis',(1.,4.04969871929041E-16,0.));
#423=DIRECTION('ref_axis',(-4.04969871929041E-16,1.,0.));
#424=DIRECTION('',(-4.04969871929041E-16,1.,0.));
#425=DIRECTION('',(0.,0.,1.));
#426=DIRECTION('',(-4.04969871929041E-16,1.,0.));
#427=DIRECTION('',(0.,0.,1.));
#428=DIRECTION('center_axis',(0.,-1.,0.));
#429=DIRECTION('ref_axis',(1.,0.,0.));
#430=DIRECTION('',(1.,0.,0.));
#431=DIRECTION('',(1.,0.,0.));
#432=DIRECTION('',(0.,0.,1.));
#433=DIRECTION('center_axis',(-1.,0.,0.));
#434=DIRECTION('ref_axis',(0.,-1.,0.));
#435=DIRECTION('',(0.,-1.,0.));
#436=DIRECTION('',(0.,-1.,0.));
#437=DIRECTION('',(0.,0.,1.));
#438=DIRECTION('center_axis',(0.,0.,1.));
#439=DIRECTION('ref_axis',(-7.77952302797504E-16,1.,0.));
#440=DIRECTION('center_axis',(0.,0.,-1.));
#441=DIRECTION('ref_axis',(7.77952302797504E-16,1.,0.));
#442=DIRECTION('center_axis',(0.,0.,-1.));
#443=DIRECTION('ref_axis',(7.77952302797504E-16,1.,0.));
#444=DIRECTION('center_axis',(0.,0.,1.));
#445=DIRECTION('ref_axis',(6.67753713501831E-17,1.,0.));
#446=DIRECTION('center_axis',(0.,0.,-1.));
#447=DIRECTION('ref_axis',(9.43867728264677E-16,-1.,0.));
#448=DIRECTION('center_axis',(0.,0.,-1.));
#449=DIRECTION('ref_axis',(9.43867728264677E-16,-1.,0.));
#450=DIRECTION('center_axis',(0.,0.,1.));
#451=DIRECTION('ref_axis',(1.,0.,0.));
#452=DIRECTION('center_axis',(0.,0.,1.));
#453=DIRECTION('ref_axis',(1.,0.,0.));
#454=DIRECTION('center_axis',(-1.,5.7673923357151E-16,0.));
#455=DIRECTION('ref_axis',(-5.7673923357151E-16,-1.,0.));
#456=DIRECTION('',(-5.7673923357151E-16,-1.,0.));
#457=DIRECTION('',(0.,0.,1.));
#458=DIRECTION('',(-5.7673923357151E-16,-1.,0.));
#459=DIRECTION('',(0.,0.,1.));
#460=DIRECTION('center_axis',(-5.55111512312578E-16,-1.,0.));
#461=DIRECTION('ref_axis',(1.,-5.55111512312578E-16,0.));
#462=DIRECTION('',(1.,-5.55111512312578E-16,0.));
#463=DIRECTION('',(0.,0.,1.));
#464=DIRECTION('',(1.,-5.55111512312578E-16,0.));
#465=DIRECTION('center_axis',(1.,0.,0.));
#466=DIRECTION('ref_axis',(0.,1.,0.));
#467=DIRECTION('',(0.,1.,0.));
#468=DIRECTION('',(0.,0.,1.));
#469=DIRECTION('',(0.,1.,0.));
#470=DIRECTION('center_axis',(0.,-1.,0.));
#471=DIRECTION('ref_axis',(1.,0.,0.));
#472=DIRECTION('',(1.,0.,0.));
#473=DIRECTION('',(1.,0.,0.));
#474=DIRECTION('',(0.,0.,1.));
#475=DIRECTION('center_axis',(-1.,-5.7673923357151E-16,0.));
#476=DIRECTION('ref_axis',(5.7673923357151E-16,-1.,0.));
#477=DIRECTION('',(5.7673923357151E-16,-1.,0.));
#478=DIRECTION('',(5.7673923357151E-16,-1.,0.));
#479=DIRECTION('',(0.,0.,1.));
#480=DIRECTION('center_axis',(-5.55111512312578E-16,1.,0.));
#481=DIRECTION('ref_axis',(-1.,-5.55111512312578E-16,0.));
#482=DIRECTION('',(-1.,-5.55111512312578E-16,0.));
#483=DIRECTION('',(-1.,-5.55111512312578E-16,0.));
#484=DIRECTION('',(0.,0.,1.));
#485=DIRECTION('center_axis',(1.,0.,0.));
#486=DIRECTION('ref_axis',(0.,1.,0.));
#487=DIRECTION('',(0.,1.,0.));
#488=DIRECTION('',(0.,1.,0.));
#489=DIRECTION('',(0.,0.,1.));
#490=DIRECTION('center_axis',(-4.874149864208E-16,1.,0.));
#491=DIRECTION('ref_axis',(-1.,-4.874149864208E-16,0.));
#492=DIRECTION('',(-1.,-4.874149864208E-16,0.));
#493=DIRECTION('',(1.,-4.874149864208E-16,0.));
#494=DIRECTION('center_axis',(0.,0.,1.));
#495=DIRECTION('ref_axis',(1.,0.,0.));
#496=DIRECTION('center_axis',(0.,0.,1.));
#497=DIRECTION('ref_axis',(1.,0.,0.));
#498=CARTESIAN_POINT('',(0.,0.,0.));
#499=CARTESIAN_POINT('Origin',(9.05,4.7,0.));
#500=CARTESIAN_POINT('',(9.05,4.7,0.));
#501=CARTESIAN_POINT('',(9.05,7.44149535948612,0.));
#502=CARTESIAN_POINT('',(9.05,4.7,0.));
#503=CARTESIAN_POINT('',(9.05,4.7,1000.));
#504=CARTESIAN_POINT('',(9.05,4.7,0.));
#505=CARTESIAN_POINT('',(9.05,7.44149535948612,1000.));
#506=CARTESIAN_POINT('',(9.05,4.7,1000.));
#507=CARTESIAN_POINT('',(9.05,7.44149535948612,0.));
#508=CARTESIAN_POINT('Origin',(10.05,4.7,0.));
#509=CARTESIAN_POINT('',(10.05,4.7,0.));
#510=CARTESIAN_POINT('',(10.05,4.7,0.));
#511=CARTESIAN_POINT('',(10.05,4.7,1000.));
#512=CARTESIAN_POINT('',(10.05,4.7,0.));
#513=CARTESIAN_POINT('',(10.05,4.7,1000.));
#514=CARTESIAN_POINT('Origin',(10.05,7.7,0.));
#515=CARTESIAN_POINT('',(10.05,7.7,0.));
#516=CARTESIAN_POINT('',(10.05,7.7,0.));
#517=CARTESIAN_POINT('',(10.05,7.7,1000.));
#518=CARTESIAN_POINT('',(10.05,7.7,0.));
#519=CARTESIAN_POINT('',(10.05,7.7,1000.));
#520=CARTESIAN_POINT('Origin',(-9.05,4.7,0.));
#521=CARTESIAN_POINT('',(-9.05,4.7,0.));
#522=CARTESIAN_POINT('',(-9.05,7.44149535948612,0.));
#523=CARTESIAN_POINT('',(-9.05,4.7,0.));
#524=CARTESIAN_POINT('',(-9.05,7.44149535948612,1000.));
#525=CARTESIAN_POINT('',(-9.05,7.44149535948612,0.));
#526=CARTESIAN_POINT('',(-9.05,4.7,1000.));
#527=CARTESIAN_POINT('',(-9.05,4.7,1000.));
#528=CARTESIAN_POINT('',(-9.05,4.7,0.));
#529=CARTESIAN_POINT('Origin',(-10.05,4.7,0.));
#530=CARTESIAN_POINT('',(-10.05,4.7,0.));
#531=CARTESIAN_POINT('',(-10.05,4.7,0.));
#532=CARTESIAN_POINT('',(-10.05,4.7,1000.));
#533=CARTESIAN_POINT('',(-10.05,4.7,1000.));
#534=CARTESIAN_POINT('',(-10.05,4.7,0.));
#535=CARTESIAN_POINT('Origin',(-10.05,7.7,0.));
#536=CARTESIAN_POINT('',(-10.05,7.7,0.));
#537=CARTESIAN_POINT('',(-10.05,7.7,0.));
#538=CARTESIAN_POINT('',(-10.05,7.7,1000.));
#539=CARTESIAN_POINT('',(-10.05,7.7,1000.));
#540=CARTESIAN_POINT('',(-10.05,7.7,0.));
#541=CARTESIAN_POINT('Origin',(0.,2.283125,0.));
#542=CARTESIAN_POINT('Origin',(0.,2.283125,0.));
#543=CARTESIAN_POINT('Origin',(0.,2.283125,1000.));
#544=CARTESIAN_POINT('Origin',(0.,2.283125,0.));
#545=CARTESIAN_POINT('Origin',(0.,2.283125,0.));
#546=CARTESIAN_POINT('Origin',(0.,2.283125,1000.));
#547=CARTESIAN_POINT('Origin',(-5.02500000000001,9.2,1000.));
#548=CARTESIAN_POINT('Origin',(-5.02500000000001,9.2,0.));
#549=CARTESIAN_POINT('Origin',(12.25,7.7,0.));
#550=CARTESIAN_POINT('',(12.25,7.7,0.));
#551=CARTESIAN_POINT('',(12.25,0.,0.));
#552=CARTESIAN_POINT('',(12.25,7.7,0.));
#553=CARTESIAN_POINT('',(12.25,7.7,1000.));
#554=CARTESIAN_POINT('',(12.25,7.7,0.));
#555=CARTESIAN_POINT('',(12.25,0.,1000.));
#556=CARTESIAN_POINT('',(12.25,7.7,1000.));
#557=CARTESIAN_POINT('',(12.25,0.,0.));
#558=CARTESIAN_POINT('Origin',(10.25,7.7,0.));
#559=CARTESIAN_POINT('',(10.25,7.7,0.));
#560=CARTESIAN_POINT('',(10.25,7.7,0.));
#561=CARTESIAN_POINT('',(10.25,7.7,1000.));
#562=CARTESIAN_POINT('',(10.25,7.7,0.));
#563=CARTESIAN_POINT('',(10.25,7.7,1000.));
#564=CARTESIAN_POINT('Origin',(10.25,1.5,0.));
#565=CARTESIAN_POINT('',(10.25,1.5,0.));
#566=CARTESIAN_POINT('',(10.25,1.5,0.));
#567=CARTESIAN_POINT('',(10.25,1.5,1000.));
#568=CARTESIAN_POINT('',(10.25,1.5,0.));
#569=CARTESIAN_POINT('',(10.25,1.5,1000.));
#570=CARTESIAN_POINT('Origin',(-12.25,0.,0.));
#571=CARTESIAN_POINT('',(-12.25,0.,0.));
#572=CARTESIAN_POINT('',(-12.25,0.,0.));
#573=CARTESIAN_POINT('',(-12.25,0.,1000.));
#574=CARTESIAN_POINT('',(-12.25,0.,1000.));
#575=CARTESIAN_POINT('',(-12.25,0.,0.));
#576=CARTESIAN_POINT('Origin',(-12.25,7.7,0.));
#577=CARTESIAN_POINT('',(-12.25,7.7,0.));
#578=CARTESIAN_POINT('',(-12.25,7.7,0.));
#579=CARTESIAN_POINT('',(-12.25,7.7,1000.));
#580=CARTESIAN_POINT('',(-12.25,7.7,1000.));
#581=CARTESIAN_POINT('',(-12.25,7.7,0.));
#582=CARTESIAN_POINT('Origin',(-10.25,7.7,0.));
#583=CARTESIAN_POINT('',(-10.25,7.7,0.));
#584=CARTESIAN_POINT('',(-10.25,7.7,0.));
#585=CARTESIAN_POINT('',(-10.25,7.7,1000.));
#586=CARTESIAN_POINT('',(-10.25,7.7,1000.));
#587=CARTESIAN_POINT('',(-10.25,7.7,0.));
#588=CARTESIAN_POINT('Origin',(-10.25,1.5,0.));
#589=CARTESIAN_POINT('',(-10.25,1.5,0.));
#590=CARTESIAN_POINT('',(-10.25,1.5,0.));
#591=CARTESIAN_POINT('',(-10.25,1.5,1000.));
#592=CARTESIAN_POINT('',(-10.25,1.5,1000.));
#593=CARTESIAN_POINT('',(-10.25,1.5,0.));
#594=CARTESIAN_POINT('Origin',(-8.26636589424464E-16,1.5,0.));
#595=CARTESIAN_POINT('',(0.,1.5,0.));
#596=CARTESIAN_POINT('',(0.,1.5,1000.));
#597=CARTESIAN_POINT('Origin',(-6.125,3.85,1000.));
#598=CARTESIAN_POINT('Origin',(-6.125,3.85,0.));
#599=UNCERTAINTY_MEASURE_WITH_UNIT(LENGTH_MEASURE(0.01),#603,
'DISTANCE_ACCURACY_VALUE',
'Maximum model space distance between geometric entities at asserted c
onnectivities');
#600=UNCERTAINTY_MEASURE_WITH_UNIT(LENGTH_MEASURE(0.01),#603,
'DISTANCE_ACCURACY_VALUE',
'Maximum model space distance between geometric entities at asserted c
onnectivities');
#601=(
GEOMETRIC_REPRESENTATION_CONTEXT(3)
GLOBAL_UNCERTAINTY_ASSIGNED_CONTEXT((#599))
GLOBAL_UNIT_ASSIGNED_CONTEXT((#603,#605,#606))
REPRESENTATION_CONTEXT('','3D')
);
#602=(
GEOMETRIC_REPRESENTATION_CONTEXT(3)
GLOBAL_UNCERTAINTY_ASSIGNED_CONTEXT((#600))
GLOBAL_UNIT_ASSIGNED_CONTEXT((#603,#605,#606))
REPRESENTATION_CONTEXT('','3D')
);
#603=(
LENGTH_UNIT()
NAMED_UNIT(*)
SI_UNIT(.MILLI.,.METRE.)
);
#604=(
LENGTH_UNIT()
NAMED_UNIT(*)
SI_UNIT(.CENTI.,.METRE.)
);
#605=(
NAMED_UNIT(*)
PLANE_ANGLE_UNIT()
SI_UNIT($,.RADIAN.)
);
#606=(
NAMED_UNIT(*)
SI_UNIT($,.STERADIAN.)
SOLID_ANGLE_UNIT()
);
#607=SHAPE_DEFINITION_REPRESENTATION(#608,#609);
#608=PRODUCT_DEFINITION_SHAPE('',$,#611);
#609=SHAPE_REPRESENTATION('',(#379),#601);
#610=PRODUCT_DEFINITION_CONTEXT('part definition',#615,'design');
#611=PRODUCT_DEFINITION('UNE-024','Bow',#612,#610);
#612=PRODUCT_DEFINITION_FORMATION('',$,#617);
#613=PRODUCT_RELATED_PRODUCT_CATEGORY('Bow','Bow',(#617));
#614=APPLICATION_PROTOCOL_DEFINITION('international standard',
'automotive_design',2009,#615);
#615=APPLICATION_CONTEXT(
'Core Data for Automotive Mechanical Design Process');
#616=PRODUCT_CONTEXT('part definition',#615,'mechanical');
#617=PRODUCT('UNE-024','Bow',$,(#616));
#618=PRESENTATION_STYLE_ASSIGNMENT((#619));
#619=SURFACE_STYLE_USAGE(.BOTH.,#622);
#620=SURFACE_STYLE_RENDERING_WITH_PROPERTIES($,#626,(#621));
#621=SURFACE_STYLE_TRANSPARENT(0.);
#622=SURFACE_SIDE_STYLE('',(#623,#620));
#623=SURFACE_STYLE_FILL_AREA(#624);
#624=FILL_AREA_STYLE('',(#625));
#625=FILL_AREA_STYLE_COLOUR('',#626);
#626=COLOUR_RGB('',0.749019607843137,0.749019607843137,0.749019607843137);
ENDSEC;
END-ISO-10303-21;
